Song name
# A B C D E F G H I J K L M N O P Q R S T U V W X Y Z

Volumes - Intake tab

http://blogs.myspace.com/index.cfm?fuseaction=blog.view&friendId=473640096&blogId=519563808

I took this tab directly off Volumes' myspace so its right. 
I kept all the notes the same but made a few changes to 
it after watching the video of them playing the song, 
it sounded like they played it differently so I threw in 
some stuff (like slides, muted notes etc.).
It seems like they don't put a lot of the tab 
so you have to figure out how the rest will work. 
Sorry about that.

This is played on a seven string in drop A. 
A,E,A,D,F#,B,E
(I'm going to label the F# as F so it doesn't throw the spacing off)

And I use [V] a lot. I use that to reference to things. 
Its supposed to be an arrow pointing down.
                              

I don't understand this intro at all so you're going to have to figure out how it works. 
The spacing has nothing to do with how it is played in how I tabbed it. 
They may have spaced it to help you play it but I didn't understand it. 
I tried to make everything smaller to save space. 
                           Drums come in:
                                VVVV
E|-0--|-0--|-0--|-0--|-0--|-0--|-0--|-0--|-2--|-0--|-0--|-2--|-0--|
B|-16-|-0--|-0--|-12-|-17-|-16-|-0--|-0--|-0--|-9--|-0--|-0--|-4--|
F|-0--|-0--|-0--|-10-|-0--|-0--|-10-|-0--|-0--|-10-|-0--|-0--|-0--|
D|-14-|-14-|-13-|-13-|-14-|-13-|-7--|-2--|-1--|-7--|-2--|-1--|-1--|
A|-0--|-16-|-14-|-0--|-16-|-14-|-11-|-4--|-2--|-11-|-4--|-2--|-2--|
E|----|----|----|----|----|----|-0--|-4--|-2--|-0--|-4--|-2--|-2--|
A|----|----|----|----|----|----|-0--|-4--|-2--|-0--|-4--|-2--|-2--|

        Lead riff repeats on loop through chorus:
         V                          V
E|-----|-----------------------------|
B|-----|------12------------12-------|
F|-----|----10--10--10----10--10--10-|
D|-----|--13------13----13------13---|
A|-----|-----------------------------|
E|-0-0-|-----------------------------|
A|-0-0-|-----------------------------|

Chorus: 
There's harmonies in the chorus somewhere. 
They didn't tab them. Sorry.

E|-------------------------0-|
B|-------------------------5-|
F|-------------------------4-|
D|-------------------------0-|
A|----------------------2--0-|
E|-------6-----------------0-|
A|-4---4---4/6--2--2/4-----0-|

E|------------------------------------|
B|------------------------------------|
F|------------------------------------|
D|----------------------------2---2---|
A|----------------------2---6---6---6-|
E|-------6----------------------------|
A|-4---4---4/6--2--2/4----0-----------|

E|-------------------------0-|
B|-------------------------5-|
F|-------------------------4-|
D|-------------------------0-|
A|----------------------2--0-|
E|-------6-----------------0-|
A|-4---4---4/6--2--2/4-----0-|

E|----------------------------------------------|
B|----------------------------------------------|
F|----------------------------------------------|
D|----------------------------6h7p6---6---------|
A|----------------------2-----------9---9-7-6---|
E|-------6------------------------------------7-|
A|-4---4---4/6--2--2/4-----0--------------------|

Play all that three times then on the last one:
               Hold [2] V
E|-------------------------|
B|-------------------------|
F|-------------------------|
D|-------------------------|
A|----------------------2--|
E|-------6-----------------|
A|-4---4---4/6--2--2s4-----|

Breakdown thing: 
This part is hard to follow. 
I'm going to do my best to tab it out how I think it is. 
The way they tabbed it was sorta confusing to me. 
There's also a second guitar part to this too. 
They didn't tab it. Sorry. 
And, to save time, I'm not going to put all the strings.

 Guitar break: 2x
  V              V
A|-----------------|---------------------------------------------------|
E|-----------------|---------------------------------------------------|
A|-0---0-0---0-0-0-|-0---0-0---0-0-0---0-0---0-0---0-0-0---0---0-0---0-|
       .     .           .     .       .     .     . . .       .

A|-----------------------------------------------|
E|--------------------------------------5--------|
A|-0---0-0---0-0-0---0-0---0-0----0-0-0----0--2b-|
       .     .       .     .      . . .    .

A|---------------------------------------------------|
E|---------------------------------------------------|
A|-0---0-0---0-0-0---0-0---0-0---0-0-0---0---0-0---0-|
       .     .       .     .     . . .       .

There's a harmony on this one part. 
I think its the same thing just played on the octave.     
       Dive bomb!: Slowly bend back down V
A|------------------------------------------|
E|------------------------------------------|
A|-0---0-0-0---0-0---0-0---0-0---0-0-0--5b--|
       .       .     .     .     . . .

I would put slight bends on the [1]'s and [2]'s.
A|------------------------------------------------------|
E|------------------------------------------------------|
A|-0---0-0---0-0-0---0-0---0-0----0-0-0---0---0-1---0-2-|
       .     .       .     .      . . .       .     .

A|-------------------------------------------------------|
E|----------------------------------------------5--------|
A|-0-0---0-0-0---0-0---0-0---0-0-0---0-1---0-2-----0--2b-|
   .     .       .     .     . . .   .     .       .

A|-------------------------------------------|
E|-------------------------------------------|
A|-0-0--0-0---0-0---0-0-0---0---0-1---0-2----|
        .     .     . . .       .     .

A|------------------------------------------|
E|----------------------------------7---5---|
A|-0-0---0-0---0-0---0-0---0-0-0-0----4---2-|
         .     .     .     . . . .

Melodic Part:
It gets really complicated here and I can't decipher what's going on 
so I'm just tabbing out how they tabbed it.

E|-0---------0---------0---------------0--------------------|
B|-0---------0---------0---------------0--------------------|
F|-10--------10--------10--------------10-------------------|
D|-7---------7---------7---------------7----7---7---7---7---|
A|-11---0-0--11---0----11---0-0---0-0--11---11--11--11--11--|
E|-0----0-0--0----0----0----0-0---0-0--0----0---0---0---0---|
A|-0----0-0--0----0----0----0-0---0-0--0----0---0---0---0---|
        . .       .         . .   . .       .   .   .   .

E|-0---------0------------------------0------------|
B|-0---------0------------------------4------------|
F|-0---------0------------------------0------------|
D|-2---------2------------------------1---1--1--1--|
A|-4---4-4---4---4-4-4---2--2--2--2---2---2--2--2--|
E|-4---4-4---4---4-4-4---2--2--2--2---2---2--2--2--|
A|-4---4-4---4---4-4-4---2--2--2--2---2---2--2--2--|
       . .       . . .   .  .  .  .       .  .  .

E|-0---------0---------0----------------0--------------------|
B|-0---------0---------0----------------0--------------------|
F|-10--------10--------10---------------0--------------------|
D|-7---------7---------7----------------4----2---2---2---2---|
A|-11---0-0--11---0----11---0-4---4-4---2----4---4---4---4---|
E|-0----0-0--0----0----0----0-4---4-4---2----4---4---4---4---|
A|-0----0-0--0----0----0----0-4---4-4---2----4---4---4---4---|
        . .       .         . .   . .        .   .   .   .
               
               Sustain notes: V            V
E|--0----------0-----------------------------|
B|--0----------0--------------12----12----12-|
F|--0----------0----------------10----10-----|
D|--1----------1------------------13----13---|
A|--2--2---2---2----2--2--2------------------|
E|--2--2---2---2----2--2--2------------------|
A|--2--2---2---2----2--2--2------------------|
       .   .        .  .  .

E|-0--0--0--0--0--0--0--0--|-0--0--0--0--0--0--0--0--|
B|-0--0--0--0--0--0--0--0--|-16-16-16-16-16-16-16-16-|
F|-10-10-10-10-10-10-10-10-|-0--0--0--0--0--0--0--0--|
D|-9--9--9--9--9--9--9--9--|-14-14-14-14-14-14-14-14-|
A|-9--9--9--9--9--9--9--9--|-0--0--0--0--0--0--0--0--|
E|-9--9--9--9--9--9--9--9--|-0--0--0--0--0--0--0--0--|
A|-9--9--9--9--9--9--9--9--|-0--0--0--0--0--0--0--0--|

E|-0-0---------0-0-0-0-|---------0--2/4\2--0---|
B|-0-0---------0-0-0-0-|-------4-------------4-|
F|-0-0---------0-0-0-0-|-----------------------|
D|-2-2---------2-2-2-2-|-----------------------|
A|-4-4-4-4-4-4-4-4-4-4-|-2---------------------|
E|-4-4-4-4-4-4-4-4-4-4-|-2---------------------|
A|-4-4-4-4-4-4-4-4-4-4-|-2---------------------|
       . . . .

Iunno about the muting on that part..?
E|-----------------|-----------------|-----------------|--------------------|
B|-----------------|-----------------|-----------------|--------------------|
F|-----------------|-----------------|-----------------|--------------------|
D|-----------------|-----------------|-----------------|--------------------|
A|-4-4-4-4-4-4-4-4-|-4-7-7-7-7-7-7-7-|-6-6-6-6-6-6-6-6-|-6-7------6---------|
E|-0-0-0-0-0-0-0-0-|-0-0-0-0-0-0-0-0-|-2-2-2-2-2-2-2-2-|-2------------------|
A|-0-0-0-0-0-0-0-0-|-0-0-0-0-0-0-0-0-|-2-2-2-2-2-2-2-2-|-2--6-4-6---6--4----|
     . .   . .   .   .   . .   .  .      . .   . .   .   .
Breakdown thing again:
Guitar break:
Don't forget this thing!
                     V
E|-----------------|-0-|
B|-----------------|-0-|
F|-----------------|-0-|
D|-----------------|-0-|
A|-----------------|-0-|
E|-----------------|-0-|
A|-0---0-0---0-0-0-|-0-|

And begins...
A|-------------------------------------------------|
E|-0-0---0---0---0-0---0-0---0-0-0-0---0-0---0-0---|
A|-0-0---0---0---0-0---0-0---0-0-0-0---0-0---0-0---|
   . .   .   .   . .   . .   . . . .   . .   . .

                                      G1V   G2V
A|-------------------------------------------------|
E|-0-0---0---0---0-0---0-0---0-0-0-0---------------|
A|-0-0---0---0---0-0---0-0---0-0-0-0---0-0---0-0---|
   . .   .   .   . .   . .   . . . .

A|-------------------------------------------------|
E|-0-0---0---0---0-0---0-0---0-0-0-0---0-0---0-0---|
A|-0-0---0---0---0-0---0-0---0-0-0-0---0-0---0-0---|
   . .   .   .   . .   . .   . . . .   . .   . .

A|------------------------------------|
E|-0-------0-0---0-0---0-0---0-0-0-0--|
A|-0-0-0---0-0---0-0---0-0---0-0-0-0--|
   .       . .   . .   . .   . . . .
                                               G1V    G2V
A|--------------------------------------------------------------------------|
E|-0---0-0---0-0-0--0000-0000---0---0-0--0-----------------0000-0000--0-0-0-|
A|-1---1-1---1-1-1--1111-1111---1---1-1--1---0-0-0--0-0-0--1111-1111--1-1-1-|
   .   . .   . . .  .... ....   .   . .  .                 .... ....  . . .

                                             G1V     G2V
A|--------------------------------------------------------------------------|
E|-0---0-0---0-0-0--0000-0000---0---0-0--0-----------------0000-0000--0-0-0-|
A|-1---1-1---1-1-1--1111-1111---1---1-1--1---0-0-0--0-0-0--1111-1111--1-1-1-|
   .   . .   . . .  .... ....   .   . .  .                 .... ....  . . .

                                             G1V    G2V
A|--------------------------------------------------------------------------|
E|------------------0000-0000---0---0-0--0---0-0-0--0-0-0--0000-0000--0-0-0-|
A|-0--0-0---0-0-0---0000-0000---0---0-0--0---0-0-0--0-0-0--0000-0000--0-0-0-|
      .     .       .... ....   .   . .  .   . . .  . . .  .... ....  . . .

         Dive bomb!V
A|--------------------------------------------------------------------------|
E|--------------------0000-0000--0---0-0--0---0-0-0--0-0-0--0000-0000-0-0-0-|
A|-0--0-0---0-0-0-5b--0000-0000--0---0-0--0---0-0-0--0-0-0--0000-0000-0-0-0-|
      .     .         .... ....  .   . .  .   . . .  . . .  .... .... . . .

A|--------|
E|-----4--|
A|-2/4----|

Clean time:
I'm not going to try and change this part either. 
This is how they tabbed it.
E|-0--|-0--|-0-|-0-|-0--|-0-|-0-|-4-|
B|-16-|-0--|-0-|-0-|-12-|-0-|-0-|-0-|
F|-0--|-10-|-0-|-0-|-10-|-0-|-0-|-2-|
D|-14-|-7--|-2-|-1-|-13-|-2-|-6-|-0-|
A|-0--|-11-|-4-|-2-|-0--|-4-|-9-|-0-|
E|-0--|-0--|-4-|-2-|-0--|-4-|-7-|-0-|
A|-0--|-0--|-4-|-2-|-0--|-4-|-7-|-0-|

Solo/lead:
E|-14---14-16-------14-16-------|-16-16-16-14-14-12-12-11----------------|
B|------------14-12-------14-12-|------------------------12------12-14---|
F|------------------------------|--------------------------12--10-----12-|
D|------------------------------|----------------------------------------|
A|------------------------------|----------------------------------------|
E|------------------------------|----------------------------------------|
A|------------------------------|----------------------------------------|

E|-------0-----------0----------------|-12-12-14-14-16-16-19----19--19---|
B|-----12-12-------12-12--------------|-0--0--0--0--0--0--0---17--17--17-|
F|-9-10-----10-9-10-----10-9-10-10-10-|----------------------------------|
D|------------------------------------|----------------------------------|
A|------------------------------------|----------------------------------|
E|------------------------------------|----------------------------------|
A|------------------------------------|----------------------------------|

E|---19--19--19--19--19--19--19---19-|-21--21--21--21---
B|-17--17--17--17--16--16--16--16----|---19--19--19--19-

E|-21-19-17-17-16-16-14-12-11--11-9--9-12---11--| (Sorry. Not enough space
B|----0--0--0--0--0--0--0--0---0--0--0-0----0---|  to fit up there^)


Ending background lead:
E|-------16--------|
B|-----------------|
F|--15---------15--|
D|-----------------|
A|-----------------|
E|-----------------|

Then the song goes back to the chorus and that's all they tabbed. 
Sorry for not having the whole thing.




Tap to rate this tab
 
# A B C D E F G H I J K L M N O P Q R S T U V W X Y Z