Volumes - Starstruck tab

----------------------------------------------------------------------------
		Starstruck (Intro) - Volumes
----------------------------------------------------------------------------
Tabbed by:Ryanshopefan1
Email:Guitplayer14@hotmail.com

Tuning:A E A D Gb B e

This deffinitely isn't perfect but it's pretty close! The G string is tuned down 
half a step to make the 7 string play like a 6 string with an added high e.


e|---------8---------------------------------------------------------------|
B|-----------12------------------------------------------------------------|
G|------10------10---------------------------------------------------------|
D|---10------------10------------------------------------------------------|
A|-8-----------------------------------------------------------------------|
E|-------------------------------------------------------------------------|
A|---------------------0-000-000-------------------------------------------|
                         ..  ..

e|---------8--------8--------8---------15-------15-------15-------15-------|
B|-----------12-------12-------12---------13-------13-------13-------13----|
G|------10------10-------10-------10---------17-------17-------17-------17-|
D|---10--------------------------------------------------------------------|
A|-8-----------------------------------------------------------------------|
E|-------------------------------------------------------------------------|
A|-------------------------------------------------------------------------|

e|---------8--------8--------8-------10-------10-------10-------10---------|
B|-----------12-------12-------12-------13-------13-------13-------13------|
G|------10------10-------10-------10-------10-------10-------13-------13---|
D|---10--------------------------------------------------------------------|
A|-8-----------------------------------------------------------------------|
E|-------------------------------------------------------------------------|
A|-------------------------------------------------------------------------|

e|-------8-------8-------8--------15-------15-------15--------15-----------|
B|---------12------12------12--------13-------13-------13--------13--------|
G|----10------10------10------10--------17-------17-------17--------17-----|
D|--10---------------------------------------------------------------------|
A|-8-----------------------------------------------------------------------|
E|-------------------------------------------------------------------------|
A|-------------------------------------------------------------------------|

e|-19-------19-------19-------19-------20-------20-------22-------22-------|
B|----17-------17-------17-------17-------17-------17-------17-------17----|
G|-------20-------20-------20-------20-------20-------20-------20-------20-|
D|-------------------------------------------------------------------------|
A|-------------------------------------------------------------------------|
E|-------------------------------------------------------------------------|
A|-------------------------------------------------------------------------|

e|---------8-------8------8------8-------8-------8--------8----------------|
B|-----------12------12-----12-----12------12------12-------12-------------|
G|------10------10-----10-----10------10------10------10-------10----------|
D|---10--------------------------------------------------------------------|
A|-8-----------------------------------------------------------------------|
E|-------------------------------------------------------------------------|
A|-------------------------------------------------------------------------|

e|-10-------10-------10-------10--------10-------10-------10-------10------|
B|----13-------13-------13-------13--------13-------13-------13-------13---|
G|-------10-------10-------10-------10--------13-------13-------13-------13|
D|-------------------------------------------------------------------------|
A|-------------------------------------------------------------------------|
E|-------------------------------------------------------------------------|
A|-------------------------------------------------------------------------|

e|-8----8-----8-----8-----8-----8-----8----------8/10-12~~~~---------------|
B|---12---12----12----12----12----12----12----12---------------------------|
G|-----------------------------------------10------------------------------|
D|-------------------------------------------------------------------------|
A|-------------------------------------------------------------------------|
E|-------------------------------------------------------------------------|
A|-------------------------------------------------------------------------|

Tap to rate this tab
 
# A B C D E F G H I J K L M N O P Q R S T U V W X Y Z