Song name
# A B C D E F G H I J K L M N O P Q R S T U V W X Y Z

Volund Smed - Kampa tab

Hey, I don't like this kind of music at all. I randomly found this song on youtube 
and liked the riff in the intro. I have made this tab and I think it is the only 
one available. I havn't seen a tab for this anywhere.

This is the second song I have learned by ear. Völund Smed - Kämpa

Rock on! / G
........................................................................

Spår 1
     E  E  E  E  E  E  E  E     E  E  E  E  E  E  Q     
E||--------------------------|-------------------------|
B||--------------------------|-------------------------|
G||--------------------------|-------------------------|
D||--------5--------6--------|--5--------6--------5----|
A||--3--3-----3--3-----3--3--|-----3--3-----3--3-------|
E||--------------------------|-------------------------|


  E  E  E  E  E  E  E  E     Q    Q    Q    Q       E  E  E  E  E  E  E  E   
--------------------------|----------------------|--------------------------|
--------------------------|----------------------|--------------------------|
--------------------------|----------------------|--------------------------|
--------------------------|--8----7----5----3----|--------5--------6--------|
--------6--------5--------|--6----5----3----1----|--3--3-----3--3-----3--3--|
--4--4-----4--4-----4--4--|----------------------|--------------------------|


  E  E  E  E  E  E  Q       E  E  E  E  E  E  E  E     Q    Q    Q    Q     
-------------------------|--------------------------|----------------------|
-------------------------|--------------------------|----------------------|
-------------------------|--------------------------|----------------------|
--5--------6--------5----|--------------------------|--8----7----5----3----|
-----3--3-----3--3-------|--------6--------5--------|--6----5----3----1----|
-------------------------|--4--4-----4--4-----4--4--|----------------------|


  E  E  E  E  E  E  E  E     E  E  E  E  E  E  Q       E  E  E  E  E  E  E  E   
--------------------------|-------------------------|--------------------------|
--------------------------|-------------------------|--------------------------|
--------------------------|-------------------------|--------------------------|
--------5--------6--------|--5--------6--------5----|--------------------------|
--3--3-----3--3-----3--3--|-----3--3-----3--3-------|--------6--------5--------|
--------------------------|-------------------------|--4--4-----4--4-----4--4--|


  Q    Q    Q    Q       E  E  E  E  E  E  E  E     E  E  E  E  E  E  Q     
----------------------|--------------------------|-------------------------|
----------------------|--------------------------|-------------------------|
----------------------|--------------------------|-------------------------|
--8----7----5----3----|--------5--------6--------|--5--------6--------5----|
--6----5----3----1----|--3--3-----3--3-----3--3--|-----3--3-----3--3-------|
----------------------|--------------------------|-------------------------|


  E  E  E  E  E  E  E  E     Q    Q    Q    Q       W                 
--------------------------|----------------------|-------------------|
--------------------------|----------------------|-------------------|
--------------------------|----------------------|-------------------|
--------------------------|--8----7----5---------|-------------------|
--------6--------5--------|--6----5----3----8----|--L----------------|
--4--4-----4--4-----4--4--|-----------------6----|--L----------------|


  E  H        Q    E     W                   Q    Q    Q    Q     
----------------------|-------------------|----------------------|
----------------------|-------------------|----------------------|
----------------------|-------------------|----------------------|
----------------------|--5----------------|--8----7----5---------|
--8--5--------L----5--|--3----------------|--6----5----3----8----|
--6--3--------L----3--|-------------------|-----------------6----|


  W                   E  H        Q    E     W                 
-------------------|----------------------|-------------------|
-------------------|----------------------|-------------------|
-------------------|----------------------|-------------------|
-------------------|----------------------|--5----------------|
--L----------------|--8--5--------L----5--|--3----------------|
--L----------------|--6--3--------L----3--|-------------------|
Tap to rate this tab
# A B C D E F G H I J K L M N O P Q R S T U V W X Y Z