Song name
# A B C D E F G H I J K L M N O P Q R S T U V W X Y Z

Vomit Remnants - Prodigy Of Solitude tab

--- VOMIT REMNANTS --- 
                             "Prodigy Of Solitude" 
                     From album: "Indefensible Vehemence" 
                     

                            TABULATURE LEGEND: 
                   " - tremolo             h - hammer on            
                   ~ - vibrato             \ - slide down 
                   p - pull off            / - slide down 
                  tr - tremolo picking     ^ - pinch harmonics      
                   = - sustained note      b - bend string          
                p.m. - palm muting         t - tapping 

TUNING INFO: Vomit Remnants use 7 string guitars since this EP, 
anyway I transcribe it as 6-string tuned to B (B,E,A,d,gb,b). 

[Riff 1] 
||-------------[x4]-||---------------------------| 
||o----------------o||---------------------------| 
||------------------||---------------------------| 
||------------------||---------------------------| 
||o-5-5-6-6-5-5-4--o||-5--6-6-5--4--6-6-5--4--5--| 
||--3-3-4-4-3-3-2---||-3--4-4-3--2--4-4-3--2--3--| 
    . . . . . . .      .  . . .  .  . . .  .  . 

[Riff 2 (x5)] 
||----------------------------------|| 
||o--------------------------------o|| 
||----------------------------------|| 
||----------------------------------|| 
||o-5-5-6-6-5-5-6-6-5-5-6-6-5-5-4--o|| 
||--3-3-4-4-3-3-4-4-3-3-4-4-3-3-2---|| 
    . . . . . . . . . . . . . . . 

[Outro A] 
|-------------|-------------------------|-------------------------| 
|-------------|-------------------------|-------------------------| 
|-------------|-------------------------|-------------------------| 
|---6-7-------|-------------------------|---------------6-7-------| 
|-5-4-5-6-7-8-|---------5-6---------5-6-|---------5-6-5-4-5-6-7-8-| 
|-3-----4-5-6-|-332-332-3-4-332-332-3-4-|-332-332-3-4-3-----4-5-6-| 
| . . . . . . | ... ... . . ... ... . . | ... ... . . . . . . . . | 
|-------------|-------------------------|-------------------------| 
|-------------|-------------------------|-------------------------| 
|-------------|-------------------------|-------------------------| 
|---6-7-------|-------------------------|-------------------------| 
|-5-4-5-6-7-8-|-------------------------|-------------------------| 
|-3-----4-5-6-|-------------------------|-------------------------| 
  . . . . . . 

[Riff 3 (x4)] 
||--------------------------|--------------------------|| 
||o-------------------------|-------------------------o|| 
||--------------------------|--------------------------|| 
||--------------------------|---------------6-7--------|| 
||o---------5-6---------5-6-|---------5-6-5-4-5-6-7-8-o|| 
||--332-332-3-4-332-332-3-4-|-332-332-3-4-3-----4-5-6--|| 
    ... ... . . ... ... . .   ... ... . . . . . . . . 

[Riff 4 (x2)] 
||---------------------------|--------------------------|- 
||o--------------------------|--------------------------|- 
||---------------------------|--------------------------|- 
||--^--------------5---------|-^--------------5---------|- 
||o-3~-4--5--4--5--3--6--7-6-|-3~-4--5--4--5--3--6--7-6-|- 
||-----2--3--2--3-----4--5-4-|----2--3--2--3-----4--5-4-|- 
       .  .  .  .  .     . .      .  .  .  .  .     . . 

-|--------------------------|--------------------------|| 
-|--------------------------|-------------------------o|| 
-|--------------------------|--------------------------|| 
-|-^--------------5---------|-^--------------5---------|| 
-|-3~-4--5--4--5--3--6--7-6-|-3~-4--5--4--5--3--6-5-4-o|| 
-|----2--3--2--3-----4--5-4-|----2--3--2--3-----4-3-2--|| 
      .  .  .  .  .     . .      .  .  .  .  .  . . . 

/break\ 

[Riff 5] 
||--------------[x3]-||-------------||--------------[x3]-||-/slowly\--------| 
||o-----------------o||-------------||o-----------------o||-----------------| 
||-------------------||-------------||-------------------||-----------------| 
||--7-----6-5--------||-------2--1--||--7-----6-5--------||---------2---1---| 
||o-5-6-5-4-3-6-5-4-o||-3--2--2--1--||o-5-6-5-4-3-6-5-4-o||-3---2---2---1---| 
||----4-3-----4-3-2--||-3--2--------||----4-3-----4-3-2--||-3---2-----------| 
    . . . . . . . .     .  .  .  .      . . . . . . . .     .   .   .   . 

[RIFF 1] [RIFF 2 (x5)] 

[Outro B] 
|-------------|------------------------------|-------------------------------| 
|-------------|------------------------------|-------------------------------| 
|-------------|------------------------------|-------------------------------| 
|---6-7-------|------------------------4-----|-------------------------------| 
|-5-4-5-6-7-8-|-2-2--2-2-2--2-2-2--2-2-2-5-4-|-2-2--2-2-2--2-------4-3-------| 
|-3-----4-5-6-|-0-0--0-0-0--0-0-0--0-0---3-2-|-0-0--0-0-0--0-0-3-2-----4-3-2-| 
| . . . . . . | . .  . . .  . . .  . .   . . | . .  . . .  . . . . . . . . . | 
|-------------|------------------------------|-------------------------------| 
|-------------|------------------------------|-------------------------------| 
|-------------|------------------------------|-------------------------------| 
|---6-7-------|------------------------------|-------------------------------| 
|-5-4-5-6-7-8-|------------------------------|-------------------------------| 
|-3-----4-5-6-|------------------------------|-------------------------------| 
  . . . . . . 

|------------------------------|-------------------------------| 
|------------------------------|-------------------------------| 
|------------------------------|-------------------------------| 
|------------------------4-----|-----------------4-------------| 
|-2-2--2-2-2--2-2-2--2-2-2-5-4-|-2-2--2-2-2--2-2-2-5-4-5-4-^---| 
|-0-0--0-0-0--0-0-0--0-0---3-2-|-0-0--0-0-0--0-0---3-2-3-2-3~--| 
| . .  . . .  . . .  . .   . . | . .  . . .  . .   . . . .     | 
|------------------------------|-------------------------------| 
|------------------------------|-------------------------------| 
|------------------------------|-------------------------------| 
|------------------------------|-------------------------------| 
|-2-2--------------------------|-------------------------------| 
|-0-0--------------------------|-------------------------------| 
  . . 

[Riff 3a (x2)] 
||-------------------------------|-------------------------------|- 
||o------------------------------|-------------------------------|- 
||-------------------------------|-------------------------------|- 
||-------------------------4-----|-------------------------------|- 
||o-2-2--2-2-2--2-2-2--2-2-2-5-4-|-2-2--2-2-2--2-------4-3-------|- 
||--0-0--0-0-0--0-0-0--0-0---3-2-|-0-0--0-0-0--0-0-3-2-----4-3-2-|- 
    . .  . . .  . . .  . .   . .   . .  . . .  . . . . . . . . . 

-|------------------------------|-------------------------------|| 
-|------------------------------|------------------------------o|| 
-|------------------------------|-------------------------------|| 
-|------------------------4-----|-----------------4-------------|| 
-|-2-2--2-2-2--2-2-2--2-2-2-5-4-|-2-2--2-2-2--2-2-2-5-4-5-4-^--o|| 
-|-0-0--0-0-0--0-0-0--0-0---3-2-|-0-0--0-0-0--0-0---3-2-3-2-3~--|| 
   . .  . . .  . . .  . .   . .   . .  . . .  . .   . . . . 

[Riff 4] 
|----------------------------------|----------------------------------|- 
|----------------------------------|----------------------------------|- 
|----------------------------------|----------------------------------|- 
|----------------------------4-----|----------------------------------|- 
|--------------------------2-2-5-4-|------------------------4-3-------|- 
|-000000001100110000000000-0---3-2-|-0000000011001100-0-3-2-----4-3-2-|- 
                           .   . .                    . . . . . . . . 

-|------------------------------|-------------------------------| 
-|------------------------------|-------------------------------| 
-|------------------------------|-------------------------------| 
-|------------------------4-----|-----------------4-------------| 
-|-2-2--2-2-2--2-2-2--2-2-2-5-4-|-2-2--2-2-2--2-2-2-5-4-5-4-^---| 
-|-0-0--0-0-0--0-0-0--0-0---3-2-|-0-0--0-0-0--0-0---3-2-3-2-3~--| 
   . .  . . .  . . .  . .   . .   . .  . . .  . .   . . . . 

[Outro C] 
|----------------------------| 
|----------------------------| 
|----------------------------| 
|----------------------------| 
|-2----------------4-3--3-2--| 
|-0----------------4-3--3-2--| 
| .                . .  . .  | 
|----------------------------| 
|----------------------------| 
|----------------------------| 
|----------------------------| 
|------------------4-3--3-2--| 
|-0000110011001100-4-3--3-2--| 
                   . .  . . 

[Riff 5a (x2)] 
||----------------------------------|----------------------------------|| 
||o---------------------------------|---------------------------------o|| 
||----------------------------------|----------------------------------|| 
||----------------------------------|----------------------------------|| 
||o----------4-3--3----------3-2--2-|----------4-3--3-5-----4-3-------o|| 
||--00000000-4-3--3-00000000-3-2--2-|-00000000-4-3--3---4-3-----4-3-2--|| 
             . .  .          . .  .            . .  . . . . . . . . . 

[Riff 5b (x2)] 
||--------------------------------|---------------------------------|| 
||o-------------------------------|--------------------------------o|| 
||--------------------------------|---------------------------------|| 
||--------------------------------|---------------------------------|| 
||o---------4-3--3---------3-2--2-|---------4-3--3-5-----4-3-------o|| 
||--000-000-4-3--3-000-000-3-2--2-|-000-000-4-3--3---4-3-----4-3-2--|| 
    ... ... . .  . ... ... . .  .   ... ... . .  . . . . . . . . . 

[RIFF 4 (x2)] 

[Outro D] 
|---------------------------------------------------| 
|---------------------------------------------------| 
|---------------------------------------------------| 
|---------------------------------------------------| 
|-5--6--5--4=============-5--6--5--4========---4----| 
|-3--4--3--2=============-3--4--3--2========---2----| 
| .  .                    .  .                 .    | 
|---------------------------------------------------| 
|---------------------------------------------------| 
|---------------------------------------------------| 
|---------------------------------------------------| 
|-------------5--4--2--4=============-5--4--2--4----| 
|-------------3--2--0--2=============-3--2--0--2----| 
              .  .                    .  .     . 

[Riff 6a (x2)] 
||--------------------------|-------------------------|- 
||o-------------------------|-------------------------|- 
||--------------------------|-------------------------|- 
||--------------------------|-------------------------|- 
||o-5--6--5--4--5--4--2--4--|-5--6--5--4--5--4--2--4--|- 
||--3--4--3--2--3--2--0--2--|-3--4--3--2--3--2--0--2--|- 
    .  .  .  .  .  .  .  .    .  .  .  .  .  .  .  . 

-|-------------------------|---------------------------|| 
-|-------------------------|--------------------------o|| 
-|-------------------------|---------------------------|| 
-|-------------------------|----------------------^----|| 
-|-5--6--5--4--5--4--2--4--|-5--6--5--4--5--4--2--3~--o|| 
-|-3--4--3--2--3--2--0--2--|-3--4--3--2--3--2--0-------|| 
   .  .  .  .  .  .  .  .    .  .  .  .  .  .  . 

[Riff 6b (x2)] 
||--------------------------|-------------------------|- 
||o-------------------------|-------------------------|- 
||--------------------------|-------------------------|- 
||--------------------------|-------------------------|- 
||o-5--6--5--4--5--4--2--4--|-5--6--5--4--5--4--2--4--|- 
||--3--4--3--2--3--2--0--2--|-3--4--3--2--3--2--0--2--|- 
    .  .        .  .  .  .    .  .        .  .  .  . 

-|-------------------------|---------------------------|| 
-|-------------------------|--------------------------o|| 
-|-------------------------|---------------------------|| 
-|-------------------------|----------------------^----|| 
-|-5--6--5--4--5--4--2--4--|-5--6--5--4--5--4--2--3~--o|| 
-|-3--4--3--2--3--2--0--2--|-3--4--3--2--3--2--0-------|| 
   .  .        .  .  .  .    .  .        .  .  . 

[RIFF 5a (x2)] [RIFF 5b (x4)] 

END OF SONG
Tap to rate this tab
# A B C D E F G H I J K L M N O P Q R S T U V W X Y Z