Song name
# A B C D E F G H I J K L M N O P Q R S T U V W X Y Z

Vomit Remnants - Engorgement tab

VOMIT REMNANTS
"Engorgement"
from album "Supreme Entity" (1999)


NOTES:
p.m. - palm muting
" - tremolo picking
h - hammer on
p - pull off
~ - vibrato
^ - pinch harmonics

TUNING is C (2 steps down)

[Riff 1 (x2)]
-|--------------------------------------------------------------------------|
-|--------------------------------------------------^-----------------------|
-|-^------------------------^-----------------------3~----------------------|
-|-3~-----------------------3~----------------------------------------------|
-|----4-4-5-5-4--5-5-4-2-4-----4-4-5-5-4--5--4-3-4-----4-4-5-5-4--5-5-4-2-4-|
-|----2-2-3-3-2--3-3-2-0-2-----2-2-3-3-2--3--2-0-2-----2-2-3-3-2--3-3-2-0-2-|
      . . . . .  . . . . .     . . . . .  .  . . .     . . . . .  . . . . .

-----------------------|
-----------------------|
-^---------------------|
-3~--------------------|
---4-4-5-5-4--5--4-3-4-|
---2-2-3-3-2--3--2-0-2-|
   . . . . .  .  . . .

[Riff 2 (x4)]
-|--------------------------------------------------------------------------|
-|--------------------------^-----------------------------------------------|
-|-^------------------------3~----------------------^-----------------------|
-|-3~-----------------------------------------------3~----------------------|
-|----4-4-5-5-4--5-5-4-2-4-----4-4-5-5-4--5--4-3-4-----4-4-5-5-4--5-5-4-2-4-|
-|----2-2-3-3-2--3-3-2-0-2-----2-2-3-3-2--3--2-0-2-----2-2-3-3-2--3-3-2-0-2-|
      . . . . .  . . . . .     . . . . .  .  . . .     . . . . .  . . . . .

[ending 1,3]
------------------|
------------------|
-------------8"7"-|
-4"------6"5"-----|
---3"5"4"---------|
------------------|

[ending 2]                          [ending 4]
---------------------------------|  ------------------------------|
---------------------------------|  ------------------------------|
---------------------------------|  ------------------------------|
-----------------3---4-4---------|  -3---------------3------------|
-5---6---3---4---1---2-2-4-4-5---|  -1---4---5---4---1---4-4-5-5--|
-3---4---1---2-----------2-2-3---|  -----2---3---2-------2-2-3-3--|
 .   .   .   .   .   . . . . .           .   .   .       . . . .

[Riff 3a (x2)]
-|-----------------------------------|-------------------------------------|
-|-----------------------------------|-------------------------------------|
-|-----------------------------------|-------------------------------------|
-|-3---------------3-----------------|-3--------------------------3344-----|
-|-1---4---5---4---1---4-4-5-5-3-3-3-|-1---4---5---4---5/6--3--4------4455-|
-|-----2---3---2-------2-2-3-3-1-1-1-|-----2---3---2---3/4--1--2-----------|
       .   .   .       . . . . . . .       .   .   .        .  .  ........

[Riff 3b]
-|-----------------------------------------|
-|-----------------------------------------|
-|-----------------------------------------|
-|------------3344----------------3344-----|
-|-5/6--3--4------4455-5/6--3--4------4455-|
-|-3/4--1--2-----------3/4--1--2-----------|
        .  .  ........      .  .  ........

[...CONITUNE]
-|-[X3]------------------------------------------|
-|-----------------------------------------------|
-|-----------------------------------------------|
-|------------3/4--------------------3--4--------|
-|-5/6--3--4--1/2--4--5--5--6--3--4--1--2--4--5--|
-|-3/4--1--2-------2--3--3--4--1--2--------2--3--|
        .  .       .  .  .  .  .  .  .  .  .  .

[Riff 4 (x4)]
-|-------------------------------------------------------------|
-|-------------------------------------------------------------|
-|-------------------------------------------------------------|
-|-9---------------------8p7---9-8-------------------7---------|
-|-7-----------------7h8-------7-6-------------6-7-6-----6-7-6-|
-|---0-0-0-0-0-0-7h8---------0-----0-0-0-0-0-0---------0-------|
     . . . . . .             .     . . . . . . . . . . . . . .

--------------------------------------------------|
--------------------------------------------------|
--------------------------------------------------|
-9---------------------8p7-----9"..----12"..------|
-7-----------------7h8-----8p7-----8"7"-----10"9"-|
---0-0-0-0-0-0-7h8--------------------------------|
   . . . . . .

[Riff 5a (x2)]
-|------------------------------------------------------------|
-|------------------------------------------------------------|
-|------------------------------------------------------------|
-|-9-----9-----12-------12-------10-----10-----9--------------|
-|---8-----8------11-------11-------9------9-----8---8--7--5--|
-|-----7-----7-------10-------10------8------8-----7-6--5--3--|
 |                                                   .  .  .  |
-|------------------------------------------------------------|
-|------------------------------------------------------------|
-|----------3-3-4-4-4-6-6-6-7-7-7-4-4-5-5-5-3-3-3-------------|
-|-2~------2-2-2-2-2-5-5-5-5-5-5-3-3-3-3-3-2-2-2-2------------|
-|---------------------------------------------------8--7--5--|
-|---------------------------------------------------6--5--3--|
                                                     .  .  .

[Riff 5b (x2)]
-|------------------------------------------------------------|
-|------------------------------------------------------------|
-|------------------------------------------------------------|
-|-9".....-----12"........-------10"......-----9"..-----------|
-|---------8---------------11--------------9---------8--7--5--|
-|-----------7----------------10-------------8-------6--5--3--|
 |                                                   .  .  .  |
-|------------------------------------------------------------|
-|------------------------------------------------------------|
-|----------3-3-4-4-4-6-6-6-7-7-7-4-4-5-5-5-3-3-3-------------|
-|-2~------2-2-2-2-2-5-5-5-5-5-5-3-3-3-3-3-2-2-2-2------------|
-|---------------------------------------------------8--7--5--|
-|---------------------------------------------------6--5--3--|
                                                     .  .  .

[Outro 2]
-|---------------------------------|
-|---------------------------------|
-|---------------------------------|
-|-4--/bass solo/------------------|
-|-2---------------2-2-2-2-2-2-2-2-|
-|-----------------0-0-0-0-0-0-0-0-|
                   . . . . . . . .

[Riff 6 (x3)]
-|------------------------------------------------------|
-|------------------------------------------------------|
-|------------------------------------------------------|
-|------------------------------------------------------|
-|---5-4---4-3----------7-6-2-6-6-5-2-5-5-4-2-4-4-3-2-3-|
-|-5-----5-----4-3-[x4]-5-4-0-4-4-3-0-3-3-2-0-2-2-1-0-1-|
   . . . . . . . .      . . . . . . . . . . . . . . . .

[Outro 3]
-|------------------------|........--------..
-|------------------------|..........------..
-|------------------------|............----..
-|------------------------|.............---..
-|---5-4---4-3----------2-|----------------..
-|-5-----5-----4-3-[x4]-0-|---bass outro---..
   . . . . . . . .      .

[Ending]
-|--------------------------|
-|--------------------------|
-|-^------------------------|
-|-3~-----------------------|
-|----4-4-5-5-4--5-5-4-2-4--|
-|----2-2-3-3-2--3-3-2-0-2--|
      . . . . .  . . . . .

END OF SONG
Tap to rate this tab
# A B C D E F G H I J K L M N O P Q R S T U V W X Y Z