Song name
# A B C D E F G H I J K L M N O P Q R S T U V W X Y Z

Vomit Remnants - Macabre Mementos tab

VOMIT REMNANTS 
"Macabre Mementos" 
from album "Supreme Entity" (1999) 


NOTES: 
p.m. - palm muting 
" - tremolo picking 
h - hammer on 
p - pull off 
~ - vibrato 
^ - pinch harmonics 

TUNING is C (2 steps down) 

[Intro] 
-|-----------------| 
-|-----------------| 
-|-----------------| 
-|-----------------| 
-|-4---4---4---4---| 
-|-2---2---2---2---| 
   .   .   .   . 

[Riff 1 (x2)] 
-|---------------------------------|--------------------------------| 
-|---------------------------------|--------------------------------| 
-|---------------------------------|--------------------------------| 
-|---------------------------------|-----------------------------^--| 
-|-2-6-5-3-4-3-6-3-2-6-5-3-4-3-4-7-|-2-6-5-3-4-3-6-7-3-6-5-3-4-3-1--| 
-|-0-4-3-1-2-1-4-1-0-4-3-1-2-1-2-5-|-0-4-3-1-2-1-4-5-0-4-3-1-2-1----| 
   . . . . . .     . . . . . .       . . . . . .     . . . . . . 

[Riff 2 (x4)] 
-|-----------------------------------------------|---------------------- 
-|-----------------------------------------------|---------------------- 
-|-----------------------------------------------|---------------------- 
-|-4---------------------------------------3-----|---------------------- 
-|-2--6--5--3--5--3--6--5-5-4--5--4-5--4-4-1--4--|-2--6--5--3--4--3--6-- 
-|----4--3--1--3--1--4--3-3-2--3--2-3--2-2----2--|-0--4--3--1--2--1--4-- 
   .  .  .  .  .  .  .  . . .  .  . .  . . .  .    .  .  .  .  .  .  . 

-----------------| 
-----------------| 
-----------------| 
-4-----3-----3---| 
-2-5-4-1-5-4-1-4-| 
---3-2---2-1---2-| 
   . .   . .    

[Riff 3 (x2)] 
-|-2h3---------2h3---------2h3-----2h3-------------------------| 
-|-----2h3---------2h3---------2h3-----2h3---------------------| 
-|---------2h3---------2h3-----------------2h3-5h6-------------| 
-|-------------------------------------------------------3-----| 
-|-------------------------------------------------5--4--1--4--| 
-|-------------------------------------------------3--2-----2--| 
                                                   .  .  .  . 

[Riff 4] 
-|-------------[x2]-|-------------[x2]-| 
-|------------------|------------------| 
-|---------5"4"-----|---------8"7"-----| 
-|-5"4"--------5"4"-|-8"7"--------8"7"-| 
-|-----6"5"---------|-----9"8"---------| 
-|------------------|------------------| 

[Outro] 
-|---------------------------| 
-|------------------------^--| 
-|-----------------3------3--| 
-|--------------4--1--7-7----| 
-|-2--5--4-4-5--2-----5-5----| 
-|-0--3--2-2-3---------------| 
   .  .  . . .  .  .  . . 

[RIFF 4 (x2)] 

[Riff 5 (x2)] 
-|----------------------------| 
-|----------------------------| 
-|--------------------5"....--| 
-|-------5"....---------------| 
-|-2--5---------5--4----------| 
-|-0--3---------3--2----------| 
   .  .         .  . 

[Riff 6 (x2)] 
-|--------------------------------------------| 
-|--------------------------------------------| 
-|----------------------------------5"...-----| 
-|-------------5"...--------------------------| 
-|-2--2--2--2--------4-5-4--4--4--4-------5-4-| 
-|-0--0--0--0--------2-3-2--2--2--2-------3-2-| 
   .  .  .  .        . . .  .  .  .       . . 

[Riff 7 (x4)] 
-|------------------| 
-|------------------| 
-|------------------| 
-|---------------3--| 
-|-2-5-4-2-5-4-2-1--| 
-|-0-3-2-0-3-2-0----| 
   . . . . . . . 

[RIFF 6 (x2)] 
[RIFF 7 (x4)] 
[RIFF 4] 

END OF SONG
Tap to rate this tab
# A B C D E F G H I J K L M N O P Q R S T U V W X Y Z