Song name
# A B C D E F G H I J K L M N O P Q R S T U V W X Y Z

Vomitory - Blessed And Forsaken tab

Help us improve GuitareTab! Take a short survey!
Band:  Vomitory
Album: Blood Rapture
Song: Blessed and Forsaken

Tuning: D Standard

Riff 1A
Guitar 1
|------------------------------------------------------------------|
|------------------------------------------------------------------|
|------------------------------------------------------------------|
|------------------------------------------------------------------|
|-5-7-8-5-7-8---------------------5-7-8-5-7-8----------------------|
|-3-5-6-3-5-6-000-000-000-000-000-3-5-6-3-5-6-000-000-000-000-000--|

Guitar 2
|------------------------------------------------------------------|
|------------------------------------------------------------------|
|------------------------------------------------------------------|
|------------------------------------------------------------------|
|-5-7-8-5-7-8---------------------5-7-8-5-7-8----------------------|
|-3-5-6-3-5-6---------------------3-5-6-3-5-6-000-000-000-000-000--|


Riff 1B
Both Guitars
|------------------------------------------------------------------|
|------------------------------------------------------------------|
|------------------------------------------------------------------|
|------------------------------------------------------------------|
|-5-7-8-5-7-8---------------------5-7-8-5-7-8----------------------|
|-3-5-6-3-5-6-000-000-000-000-000-3-5-6-3-5-6-000-000-000-000-000--| x2


Riff 1 ending
Both Guitars
|---------------------|
|---------------------|
|---------------------|
|---------------------|
|-5-7-8-5-7-8-4~---3--|
|-3-5-6-3-5-6-2~---1--|


Riff 2
Both Guitars
|-----------------------------------------------------------------|
|-----------------------------------------------------------------|
|-----------------------------------------------------------------|
|---------------6-------------------------------6-----------------|
|---------578--54--------578-5-7-4--------578--541111000011113333-|
|-00000000356003400000000356-3-5-2000000003560034-----------------|

Ending 1            Ending 2
------------------|------------------|
------------------|------------------|
------------------|------------------|
------------------|------------3333--|
4444444433331111--|444433334444------|
------------------|------------------|

Riff 3
Guitar 1
|------------------------------------------------------------------|
|------------------------------------------------------------------|
|------------------------------------------------------------------|
|----------------------------------------------7\666667\66---------|
|-6\555556\55555-9\888889\88333-6\555556\55555-5\444445\44-3-3-----|
|-4\333334\33333-7\666667\66111-4\333334\33333-5\444445\44-1-1-----| x2
Second guitar comes in here-----^


Riff 2


Riff 4
Both Guitars
|------------------------------------------------------------------|
|------------------------------------------------------------------|
|------------------------------------------------------------------|
|-2222--------33332222--------33336\55-7/88-6\55-7/88--------------|
|---------------------------------4\33-5/66-4\33-5/66--------------|
|-----00003333--------00003333----4\33-5/66-4\33-5/66--------------| x4


Riff 5
Both Guitars
|------------------------------------------------------------------|
|------------------------------------------------------------------|
|------------------------------------------------------------------|
|------------------------------------------------------------------|
|-5-6-5-3-5--5-6-5-3-5--5-6-3--5-6-5-3-5--5-6-5-3-5-7-8------------|
|-3-4-3-1-3--3-4-3-1-3--3-4-1--3-4-3-1-3--3-4-3-1-3-5-6------------|


Riff 2
Riff 3


Riff 6
Guitar 1
|------------------------------------------------------------------|
|------------------------------------------------------------------|
|------------------------------------------------------------------|
|------------------------------------------------------------------|
|-5-6-5-3-5--5-6-5-3-5--5-6-3--5-6-5-3-5--5-6-5-3-5-7-8------------|
|-3-4-3-1-3--3-4-3-1-3--3-4-1--3-4-3-1-3--3-4-3-1-3-5-6------------|

Guitar 2
|------------------------------------------------------------------|
|------------------------------------------------------------------|
|------------------------------------------------------------------|
|------------------------------------------------------------------|
|---------5----------5------3----------5----------5-7-8------------|
|---------3----------3------1----------3----------3-5-6------------| x2


Riff 2
Riff 4
Riff 5

End riff 5 with:
|----
|----
|----
|-6~-
|-4~-
|-4~-

Riff 1B

Then last riff:
Both Guitars
|----------------------------------------------------------------------|
|----------------------------------------------------------------------|
|----------------------------------------------------------------------|
|----------------------------------------------------------------------|
|-5-7-8-5-7-8-2~--------------------5-7-8-5-7-8-2~---------------------|
|-3-5-6-3-5-6-0~--------------------3-5-6-3-5-6-0~---------------------|
Related for Blessed And Forsaken tab