Song name
# A B C D E F G H I J K L M N O P Q R S T U V W X Y Z

Vomitory - Chaos Fury tab

Band:  Vomitory
Album: Blood Rapture
Song: Chaos Fury

Tuning: D Standard

Riff 1
Guitar 1
|----------------------------|----------|-----------|
|----------------------------|----------|-----------|
|----------------------------|----------|-----------|
|----------------------------|----3-----|2h3p2p0----|
|-3---------3-5-6--3---------|----1-----|--------3-2|
|-1-0000000-1-3-4--1-0000000-|100---0---|--------1-0|

Guitar2
|----------------------------|----------|-----------|
|----------------------------|----------|-----------|
|----------------------------|----------|-----------|
|----------------------------|----------|2h3p2p0----|
|-3---------3-5-6--3---------|----------|--------3-2|
|-1---------1-3-4--1---------|----------|--------1-0|


Riff 2
Guitar 1
|------------------------|------------|------------|
|------------------------|------------|------------|
|------------------------|------------|------------|
|------------------------|------------|------------|
|------------------------|-3333322222-|-2222211111-|
|-4444443344000000111000-|------------|------------|

Guitar 2
|------------------------|------------|------------|
|------------------------|------------|------------|
|------------------------|------------|------------|
|------------------------|-5555544444-|-4444433333-|
|------------------------|------------|------------|
|-4444443344000000111000-|------------|------------|


Riff 3
Both Guitars
|-------------------------------------------|
|-------------------------------------------|
|-------------------------------------------|
|--------6p5---5p3---3--------3p2---2p0---3-|
|-----------------------------------------1-|
|-000000-----0-----0---000000-----0-----0---|
             .     .              .     .


Riff 4
Guitar 1
|--------------------------------|---------------------------------------|
|--------------------------------|---------------------------------------|
|--------------------------------|---------------------------------------|
|--------------------------------|---------------------------7"--6"------|
|-4"----7"--5"--4"--2"--1"-------|-4"-----7"--5"--4"--2"-5"----------8"--|
|-----------------------------3"-|---------------------------------------|

Guitar 2
|--------------------------------|---------------------------------------|
|--------------------------------|---------------------------------------|
|--------------------------------|---------------------------------------|
|--------------------------------|---------------------------------------|
|-4"----7"--5"--4"--2"--1"-------|-4"-----7"--5"--4"--2"-5"""""""""""""--|
|-----------------------------3"-|---------------------------------------|


Riff 5
Both Guitars:
|--------------------------|---------------------------|
|--------------------------|---------------------------|
|--------------------------|---------------------------|
|--------------------------|---------------------------|
|-4"----7"--4"---2"-3"---3"|-4"----7"--4"--2"--5"--5"--|
|-2"----5"--2"---0"-1"---3"|-2"----5"--2"--0"--3"--5"--|

End
Both Guitars:
|---------------------------|
|---------------------------|
|---------------------------|
|-------3-----------2--3----|
|-5--2--1--2--5--2--0--1--2-|
|-3--0-----0--3--0--------0-|

Tap to rate this tab
# A B C D E F G H I J K L M N O P Q R S T U V W X Y Z