Song name
# A B C D E F G H I J K L M N O P Q R S T U V W X Y Z

Von Bondies - Night Train tab

-----------------------------------------------------------------------------
			     Von Bondies - Night Train
-----------------------------------------------------------------------------
Tabbed by: useless_idiot
Email: lazystudentboy@hotmail.com


see them last and thought id post some chords on here seen as there arent that many

this is played through out the entire song (there were other little bits but i couldnt pick up on them)


Tuning: standard


       F#m               Em             A
e|------2---2------------0--------------0-----------------------------------|
B|------2---2------------0--------------2-----------------------------------|
G|------2---2------------0--------------2-----------------------------------|
D|------4---4------------2--------------2-----------------------------------|
A|------4---4------------2--------------0-----------------------------------|
E|------2---2------------0--------------0-----------------------------------|
      (up)(down) 	(up)	      (down)


on the bits they just strum one chord its just F#m
Tap to rate this tab
# A B C D E F G H I J K L M N O P Q R S T U V W X Y Z