Song name
# A B C D E F G H I J K L M N O P Q R S T U V W X Y Z

Von Bondies - Shes Dead To Me tab

intro/verse/chorus
e|-------------------------------------------------------------------------|
B|-------------------------------------------------------------------------|
G|-------------------------------------------------------------------------|
D|-------5-5-5-5-5-5--------------7-7-7-7-7-7------------------------------|
A|7-7-7--3-3-3-3-3-3-5-5-5-5-5-5--5-5-5-5-5-5------------------------------|
E|5-5-5--------------3-3-3-3-3-3-------------------------------------------|


palm-muted part
e|-------------------------------------------------------------------------|
B|-------------------------------------------------------------------------|
G|-------------------------------------------------------------------------|
D|-------------------------------------------------------------------------|
A|----3-3-----5-3p5--------------------------------------------------------|
E|5-5-----3-3-------5-5----------------------------------------------------|

pre-chorus
e|-------------------------------------------------------------------------|
B|-------------------------------------------------------------------------|
G|-------------------------------------------------------------------------|
D|-------5-h5------7-h7----------------------------------------------------|
A|7--h7--3-h3-5-h5-5-h5----------------------------------------------------|
E|5--h5-------3-h3---------------------------------------------------------|





h-harmonic
Tap to rate this tab
# A B C D E F G H I J K L M N O P Q R S T U V W X Y Z