Song name
# A B C D E F G H I J K L M N O P Q R S T U V W X Y Z

Von Bondies - Pale Bride tab

my first tab! i know its incorrect but its closer than the other tabs


intro
e|-------------------------------------------------------------------------|
B|-------------------------------------------------------------------------|
G|-7-7-7-7-7-7-7-10-10-8-8-8-8-8-8-3-3-3-3-3-3-5-5-5-5-5-3-3-3-3-3-3-------|
D|-------------------------------------------------------------------------|
A|-------------------------------------------------------------------------|
E|-------------------------------------------------------------------------|

e|-------------------------------------------------------------------------|
B|-------------------------------------------------------------------------|
G|-7-7-7-7-7-7-7-10-10-8-8-8-8-8-8-12-12-12-3-3-3-3-3-5-5-5-5-5-3-3-3-3-3--|
D|-------------------------------------------------------------------------|
A|-------------------------------------------------------------------------|
E|-------------------------------------------------------------------------|
verse
e|-------------------------------------------------------------------------|
B|-------------------------------------------------------------------------|
G|----------3-3--3-3-------------------------------------------------------|
D|3-3--3-3--1-1--1-1--3-3--3-3--5-5--5-5-----------------------------------|
A|1-1--1-1------------1-1--1-1--3-3--3-3-----------------------------------|
E|-------------------------------------------------------------------------|x2
chorus
e|-------------------------------------------------------------------------|
B|-------------------------------------------------------------------------|
G|5-7-7-7-7-5-7-7-7-7-5-7-7-7-7---10-7-8-7-10-7-8-7-10-7-8-7-10-12-12-12-12|
D|-------------------------------------------------------------------------|
A|-------------------------------------------------------------------------|
E|-------------------------------------------------------------------------|

Verse x2

chorus
e|-------------------------------------------------------------------------|
B|-------------------------------------------------------------------------|
G|5-7-7-7-7-5-7-7-7-7-5-7-7-7-7---10-7-8-7-10-7-8-7-10-7-8-7-10-12-12-12---|
D|-------------------------------------------------------------------------|
A|-------------------------------------------------------------------------|
E|-------------------------------------------------------------------------|
pre-chorus
e|---------------------------------------------------------------------------|
B|---------------------------------------------------------------------------|
G|7-10-7---7-10-7---7-10-7-12-7-10-7-----------------------------------------|x2
D|---------------------------------------------------------------------------|
A|---------------------------------------------------------------------------|
E|---------------------------------------------------------------------------|

pre-chorus and chorus played over each other on 3rd chorus

i dont know solo

last verse-palm muted (christy)
e|---------------------------------------------------------------------------|
B|---------------------------------------------------------------------------|
G|---------------------------------------------------------------------------|
D|--------------1-1-1-1-1-1-1------------------------------------------------|
A|1-1-1-1-1-1-1---------------1-1-1-1-1-1-1-3-3-3-3-3-3-1-1-1-1-1-1----------|
E|---------------------------------------------------------------------------|x

last verse (jason)
e|-------------------------------------------------------------------------|
B|-------------------------------------------------------------------------|
G|-7-7-7-7-7-10-10-10-10-8-8-8-8-8-8-3-3-3-3-3-3-5-5-5-5-5-5-3-3-3-3-------|
D|-------------------------------------------------------------------------|
A|-------------------------------------------------------------------------|
E|-------------------------------------------------------------------------|
Tap to rate this tab
# A B C D E F G H I J K L M N O P Q R S T U V W X Y Z