Song name
# A B C D E F G H I J K L M N O P Q R S T U V W X Y Z

Von Bondies - Shut Your Mouth tab

I'm pretty sure that some part of the songwrong. Correct me if it so

E--12-0-0--12-12-0-0--12-12-0-0--12-12-10-10-10------------------| x4

Go to sleep little baby...

P.M.
E--12-0-0--12-12-0-0--12-12-0-0--12-12-10-10-10------------------| x4


Can you say a good word about us?
e---------------------------------------------------------|
b---------------------------------------------------------|
g-------------9---------------12--------------------------|
d-------------9---------------12--------------------------|
A-------------7---------------10--------------------------|
E---------------------------------------------------------|

Can you say a good thing, good thing?
e-----------------------------------------------------|
b-----------------------------------------------------|
g-------------5-----------7---------------------------|
d-------------5-----------7---------------------------|
A-------------3-----------5---------------------------|
E-----------------------------------------------------|

Can you say a good word about us?
e-----------------------------------------------------|
b-----------------------------------------------------|
g-------------9---------------7-----------------------|
d-------------9---------------7-----------------------|
A-------------7---------------5-----------------------|
E-----------------------------------------------------|

Can you say a good good good good thing?
e-----------------------------------------------------|
b-----------------------------------------------------|
g-----------------------------------------------------|
d--------------5-------------------7------------------|
A--------------5-------------------7------------------|
E--------------3-------------------5------------------|

   P.M.
A--14-14-14-14-12/-------------------14-14-14-14-12/--------------------|
E------------------10-10-10-10-12/-------------------10-10-10-10-11-12/-|

Without palm mute
A--14-14-14-14-12/-------------------14-14-14-14-12/--------------------|
E------------------10-10-10-10-12/-------------------10-10-10-10-11-12/-|

  O-----------------------------------------------------|hhh
e-------------------------------------------------------|
b-------------------------------------------------------|
g--5-5-5-5-5-5-5-5----7-7-7-7-7-7-7-7-------------------|
d--5-5-5-5-5-5-5-5----7-7-7-7-7-7-7-7-------------------|
A--3-3-3-3-3-3-3-3----5-5-5-5-5-5-5-5-------------------|
E-------------------------------------------------------|


Can you say a good word about us...

1st guitar play the same
2nd guitar

b---------------------17-17--15-15-15-15--17-17-12-12--| x3
g-12-12-12-12-12-12------------------------------------|

On 4th time play
(Can you say good, good, good, good thing?)
b--15-13-12-13-12--|

Then play with P.M. to the end song gradually played without muting. listen song to know 
when entering second guitar with his party
e------------------------------------------------------------------------------|
b------------------------------------------------------------------------------|
g--9-9-9-9-9-9-9-9-----------------------5-5-5-5-5-5-5-5----4-4-4-4-4----7-7-7-|
d--9-9-9-9-9-9-9-9----5-5-5-5-5-5-5-5----5-5-5-5-5-5-5-5----4-4-4-4-4----7-7-7-|
A--7-7-7-7-7-7-7-7----5-5-5-5-5-5-5-5----3-3-3-3-3-3-3-3----2-2-2-2-2----5-5-5-|
E---------------------3-3-3-3-3-3-3-3------------------------------------------|
Tap to rate this tab
 
# A B C D E F G H I J K L M N O P Q R S T U V W X Y Z