Song name
# A B C D E F G H I J K L M N O P Q R S T U V W X Y Z

Von Bondies - Lack Of Communication tab

lack of communication
von bondies


(yo listen to da song mon)

gtr1

intro

1----------------------------------|im not shure bute i think you do that
2----------------------------------|chord 83to86 times
3---6--6--6--6--6--6--6--6--6------|
4---7--7--7--7--7--7--7--7--7------|
5---7--7--7--7--7--7--7--7--7------|
6---5--5--5--5--5--5--5--5--5------|

chorus
    a      g      c       d
1---------------------------------------------------------|
2---------------------------------------------------------|
3--6--6-x-4--4-x--5--5-x--7--7-x--------------------------|
4--7--7-x-5--5-x--5--5-x--7--7-x--------------------------|
5--7--7-x-5--5-x--3--3-x--5--5-x--------------------------|
6--5--5-x-3--3-x------------------------------------------|

gtr2

1--------------      1------------------|
2--------------      2------------------|
3--------------      3------------------|
4--------------   x3 4------------------|
5---3---2----0-      5------------------|
6--------------      6---3------2-----0-|


1----------------------------------------|
2----------------------------------------|
3----------------------------------------|
4----------------------------------------|
5-------------------3--3----5-3-0--------|
6---5--5----3--3-------------------------|


gtr1


g////////d///////

thats it im not gonna sort it out your not important enough
peace yall

-gary- ( my first tab)
Tap to rate this tab
# A B C D E F G H I J K L M N O P Q R S T U V W X Y Z