Song name
# A B C D E F G H I J K L M N O P Q R S T U V W X Y Z

Von Bondies - Been Swank tab

Been Swank
The Von Bondies
Tabbed by: Nate Magat (itsnate2002@yahoo.com)



Very fun song to play! This is my first tab, but i think it's very accurate.



Bass (played throughout the whole song):
G|--------------------------------------------------------------|
D|---------------------------------------------------------5----|
A|--7--7--7-5-------7--7--7-5-------7--7--7-5-------7--7-7---7--|
E|------------7-5-3-----------7-5-3-----------7-5-3-------------|


Chorus:
E|---------------------------------------------------------|
B|---------------------------------------------------------|
G|--5----4--3--2-2--------5-5--------2-2--------5-5-/-7-7--|
D|--5----4--3--2-2-222222-5-5-222222-2-2-222222-5-5-/-7-7--|
A|--3----2--1--0-0-222222-3-3-222222-0-0-222222-3-3-/-5-5--|
E|-----------------000000-----000000-----000000------------|


Verse:
E|---------------------------------------------------------|
B|--------------------------------------------1------------|
G|----2----2-0-2----2-----2--0----2----2-0-2----2-0-2------|
D|--2---2---------2---2---------2---2----------------------|
A|---------------------------------------------------------|
E|---------------------------------------------------------|
(The easiest way to play this is to hold an Am chord and let up on
your ring finger to play the open string)


The solo is a bit hard for me to tab. But that's most of the song. Rock
on with your bad self.
Tap to rate this tab
 
# A B C D E F G H I J K L M N O P Q R S T U V W X Y Z