Song name
# A B C D E F G H I J K L M N O P Q R S T U V W X Y Z

Von Bondies - C Mon C Mon tab

INTRO
P.M.-------------------------------------------------------------------
E |----------------|----------------|-3--5--5--------|--3--5--5-------||
B |-2--3--3--------|-5--7--7--------|----------------|----------------||
G |----------------|----------------|----------------|----------------||
D |----------------|----------------|----------------|----------------||
A |----------------|----------------|----------------|----------------||
E |----------------|----------------|----------------|----------------||

P.M.-------------------------------------------------------------------
E |----------------|----------------|-3--5--5--------|-3--5--5--------||
B |-2--3--3--------|-5--7--7--------|----------------|----------------||
G |----------------|----------------|----------------|----------------||
D |----------------|----------------|----------------|----------------||
A |----------------|----------------|----------------|----------------||
E |----------------|----------------|----------------|----------------||

P.M.-------------------------------------------------------------------
E |----------------|----------------|-3--5--5--------|-3--5--5--------||
B |-2--3--3--------|-5--7--7--------|----------------|----------------||
G |----------------|----------------|----------------|----------------||
D |----------------|----------------|----------------|----------------||
A |----------------|----------------|----------------|----------------||
E |----------------|----------------|----------------|----------------||

P.M.-------------------------------------------------------------------
E |-1--1--1--------|-3--3--3--------|----------------|----------------||
B |----------------|----------------|-7--7--7--------|-7--7--7--------||
G |----------------|----------------|----------------|----------------||
D |----------------|----------------|----------------|----------------||
A |----------------|----------------|----------------|----------------||
E |----------------|----------------|----------------|----------------||

VERSE
E |----------------|----------------|-5--5--5--------|-5--5--5--------||
B |-3--3--3--------|-5--5--5--------|-7--7--7--------|-7--7--7--------||
G |-5--5--5--------|-7--7--7--------|-7--7--7--------|-7--7--7--------||
D |-5--5--5--------|-7--7--7--------|----------------|----------------||
A |----------------|----------------|----------------|----------------||
E |----------------|----------------|----------------|----------------||

E |----------------|----------------|-5--5--5--------|-5--5--5--------||
B |-3--3--3--------|-5--5--5--------|-7--7--7--------|-7--7--7--------||
G |-5--5--5--------|-7--7--7--------|-7--7--7--------|-7--7--7--------||
D |-5--5--5--------|-7--7--7--------|----------------|----------------||
A |----------------|----------------|----------------|----------------||
E |----------------|----------------|----------------|----------------||

E |----------------|----------------|-5--5--5--------|-3--3--3--------||
B |-3--3--3--------|-5--5--5--------|-7--7--7--------|-5--5--5--------||
G |-5--5--5--------|-7--7--7--------|-7--7--7--------|-5--5--5--------||
D |-5--5--5--------|-7--7--7--------|----------------|----------------||
A |----------------|----------------|----------------|----------------||
E |----------------|----------------|----------------|----------------||

E |-1--1--1--------|-3--3--3--------|----------------|----------------||
B |-3--3--3--------|-5--5--5--------|-7--7--7--------|-7--7--7--------||
G |-3--3--3--------|-5--5--5--------|-9--9--9--------|-9--9--9--------||
D |----------------|----------------|-9--9--9--------|-9--9--9--------||
A |----------------|----------------|----------------|----------------||
E |----------------|----------------|----------------|----------------||

E |----------------|----------------|-5--5--5--------|-5--5--5--------||
B |-3--3--3--------|-5--5--5--------|-7--7--7--------|-7--7--7--------||
G |-5--5--5--------|-7--7--7--------|-7--7--7--------|-7--7--7--------||
D |-5--5--5--------|-7--7--7--------|----------------|----------------||
A |----------------|----------------|----------------|----------------||
E |----------------|----------------|----------------|----------------||

E |----------------|----------------|-5--5--5--------|-5--5--5--------||
B |-3--3--3--------|-5--5--5--------|-7--7--7--------|-7--7--7--------||
G |-5--5--5--------|-7--7--7--------|-7--7--7--------|-7--7--7--------||
D |-5--5--5--------|-7--7--7--------|----------------|----------------||
A |----------------|----------------|----------------|----------------||
E |----------------|----------------|----------------|----------------||

E |----------------|----------------|-5--5--5--------|-3--3--3--------||
B |-3--3--3--------|-5--5--5--------|-7--7--7--------|-5--5--5--------||
G |-5--5--5--------|-7--7--7--------|-7--7--7--------|-5--5--5--------||
D |-5--5--5--------|-7--7--7--------|----------------|----------------||
A |----------------|----------------|----------------|----------------||
E |----------------|----------------|----------------|----------------||

E |-1--1--1--------|-3--3--3--------|----------------|----------------||
B |-3--3--3--------|-5--5--5--------|-7--7--7--------|-7--7--7--------||
G |-3--3--3--------|-5--5--5--------|-9--9--9--------|-9--9--9--------||
D |----------------|----------------|-9--9--9--------|-9--9--9--------||
A |----------------|----------------|----------------|----------------||
E |----------------|----------------|----------------|----------------||

E |----------------|----------------|-5--5--5--------|-5--5--5--------||
B |-3--3--3--------|-5--5--5--------|-7--7--7--------|-7--7--7--------||
G |-5--5--5--------|-7--7--7--------|-7--7--7--------|-7--7--7--------||
D |-5--5--5--------|-7--7--7--------|----------------|----------------||
A |----------------|----------------|----------------|----------------||
E |----------------|----------------|----------------|----------------||

E |----------------|----------------|-5--5--5--------|-5--5--5--------||
B |-3--3--3--------|-5--5--5--------|-7--7--7--------|-7--7--7--------||
G |-5--5--5--------|-7--7--7--------|-7--7--7--------|-7--7--7--------||
D |-5--5--5--------|-7--7--7--------|----------------|----------------||
A |----------------|----------------|----------------|----------------||
E |----------------|----------------|----------------|----------------||

E |----------------|----------------|-5--5--5--------|-3--3--3--------||
B |-3--3--3--------|-5--5--5--------|-7--7--7--------|-5--5--5--------||
G |-5--5--5--------|-7--7--7--------|-7--7--7--------|-5--5--5--------||
D |-5--5--5--------|-7--7--7--------|----------------|----------------||
A |----------------|----------------|----------------|----------------||
E |----------------|----------------|----------------|----------------||

E |-1--1--1--------|-3--3--3--------|----------------|----------------||
B |-3--3--3--------|-5--5--5--------|-7--7--7--------|-7--7--7--------||
G |-3--3--3--------|-5--5--5--------|-9--9--9--------|-9--9--9--------||
D |----------------|----------------|-9--9--9--------|-9--9--9--------||
A |----------------|----------------|----------------|----------------||
E |----------------|----------------|----------------|----------------||

INTRO (play again)
P.M.-------------------------------------------------------------------
E |----------------|----------------|-3--5--5--------|--3--5--5-------||
B |-2--3--3--------|-5--7--7--------|----------------|----------------||
G |----------------|----------------|----------------|----------------||
D |----------------|----------------|----------------|----------------||
A |----------------|----------------|----------------|----------------||
E |----------------|----------------|----------------|----------------||

P.M.-------------------------------------------------------------------
E |----------------|----------------|-3--5--5--------|-3--5--5--------||
B |-2--3--3--------|-5--7--7--------|----------------|----------------||
G |----------------|----------------|----------------|----------------||
D |----------------|----------------|----------------|----------------||
A |----------------|----------------|----------------|----------------||
E |----------------|----------------|----------------|----------------||

P.M.-------------------------------------------------------------------
E |----------------|----------------|-3--5--5--------|-3--5--5--------||
B |-2--3--3--------|-5--7--7--------|----------------|----------------||
G |----------------|----------------|----------------|----------------||
D |----------------|----------------|----------------|----------------||
A |----------------|----------------|----------------|----------------||
E |----------------|----------------|----------------|----------------||

P.M.-------------------------------------------------------------------
E |-1--1--1--------|-3--3--3--------|----------------|----------------||
B |----------------|----------------|-7--7--7--------|-7--7--7--------||
G |----------------|----------------|----------------|----------------||
D |----------------|----------------|----------------|----------------||
A |----------------|----------------|----------------|----------------||
E |----------------|----------------|----------------|----------------||

VERSE (play riff one extra time)
E |----------------|----------------|-5--5--5--------|-5--5--5--------||
B |-3--3--3--------|-5--5--5--------|-7--7--7--------|-7--7--7--------||
G |-5--5--5--------|-7--7--7--------|-7--7--7--------|-7--7--7--------||
D |-5--5--5--------|-7--7--7--------|----------------|----------------||
A |----------------|----------------|----------------|----------------||
E |----------------|----------------|----------------|----------------||

E |----------------|----------------|-5--5--5--------|-5--5--5--------||
B |-3--3--3--------|-5--5--5--------|-7--7--7--------|-7--7--7--------||
G |-5--5--5--------|-7--7--7--------|-7--7--7--------|-7--7--7--------||
D |-5--5--5--------|-7--7--7--------|----------------|----------------||
A |----------------|----------------|----------------|----------------||
E |----------------|----------------|----------------|----------------||

E |----------------|----------------|-5--5--5--------|-3--3--3--------||
B |-3--3--3--------|-5--5--5--------|-7--7--7--------|-5--5--5--------||
G |-5--5--5--------|-7--7--7--------|-7--7--7--------|-5--5--5--------||
D |-5--5--5--------|-7--7--7--------|----------------|----------------||
A |----------------|----------------|----------------|----------------||
E |----------------|----------------|----------------|----------------||

E |-1--1--1--------|-3--3--3--------|----------------|----------------||
B |-3--3--3--------|-5--5--5--------|-7--7--7--------|-7--7--7--------||
G |-3--3--3--------|-5--5--5--------|-9--9--9--------|-9--9--9--------||
D |----------------|----------------|-9--9--9--------|-9--9--9--------||
A |----------------|----------------|----------------|----------------||
E |----------------|----------------|----------------|----------------||

E |----------------|----------------|-5--5--5--------|-5--5--5--------||
B |-3--3--3--------|-5--5--5--------|-7--7--7--------|-7--7--7--------||
G |-5--5--5--------|-7--7--7--------|-7--7--7--------|-7--7--7--------||
D |-5--5--5--------|-7--7--7--------|----------------|----------------||
A |----------------|----------------|----------------|----------------||
E |----------------|----------------|----------------|----------------||

E |----------------|----------------|-5--5--5--------|-5--5--5--------||
B |-3--3--3--------|-5--5--5--------|-7--7--7--------|-7--7--7--------||
G |-5--5--5--------|-7--7--7--------|-7--7--7--------|-7--7--7--------||
D |-5--5--5--------|-7--7--7--------|----------------|----------------||
A |----------------|----------------|----------------|----------------||
E |----------------|----------------|----------------|----------------||

E |----------------|----------------|-5--5--5--------|-3--3--3--------||
B |-3--3--3--------|-5--5--5--------|-7--7--7--------|-5--5--5--------||
G |-5--5--5--------|-7--7--7--------|-7--7--7--------|-5--5--5--------||
D |-5--5--5--------|-7--7--7--------|----------------|----------------||
A |----------------|----------------|----------------|----------------||
E |----------------|----------------|----------------|----------------||

E |-1--1--1--------|-3--3--3--------|----------------|----------------||
B |-3--3--3--------|-5--5--5--------|-7--7--7--------|-7--7--7--------||
G |-3--3--3--------|-5--5--5--------|-9--9--9--------|-9--9--9--------||
D |----------------|----------------|-9--9--9--------|-9--9--9--------||
A |----------------|----------------|----------------|----------------||
E |----------------|----------------|----------------|----------------||

E |----------------|----------------|-5--5--5--------|-5--5--5--------||
B |-3--3--3--------|-5--5--5--------|-7--7--7--------|-7--7--7--------||
G |-5--5--5--------|-7--7--7--------|-7--7--7--------|-7--7--7--------||
D |-5--5--5--------|-7--7--7--------|----------------|----------------||
A |----------------|----------------|----------------|----------------||
E |----------------|----------------|----------------|----------------||

E |----------------|----------------|-5--5--5--------|-5--5--5--------||
B |-3--3--3--------|-5--5--5--------|-7--7--7--------|-7--7--7--------||
G |-5--5--5--------|-7--7--7--------|-7--7--7--------|-7--7--7--------||
D |-5--5--5--------|-7--7--7--------|----------------|----------------||
A |----------------|----------------|----------------|----------------||
E |----------------|----------------|----------------|----------------||

E |----------------|----------------|-5--5--5--------|-3--3--3--------||
B |-3--3--3--------|-5--5--5--------|-7--7--7--------|-5--5--5--------||
G |-5--5--5--------|-7--7--7--------|-7--7--7--------|-5--5--5--------||
D |-5--5--5--------|-7--7--7--------|----------------|----------------||
A |----------------|----------------|----------------|----------------||
E |----------------|----------------|----------------|----------------||

E |-1--1--1--------|-3--3--3--------|----------------|----------------||
B |-3--3--3--------|-5--5--5--------|-7--7--7--------|-7--7--7--------||
G |-3--3--3--------|-5--5--5--------|-9--9--9--------|-9--9--9--------||
D |----------------|----------------|-9--9--9--------|-9--9--9--------||
A |----------------|----------------|----------------|----------------||
E |----------------|----------------|----------------|----------------||

E |----------------|----------------|-5--5--5--------|-5--5--5--------||
B |-3--3--3--------|-5--5--5--------|-7--7--7--------|-7--7--7--------||
G |-5--5--5--------|-7--7--7--------|-7--7--7--------|-7--7--7--------||
D |-5--5--5--------|-7--7--7--------|----------------|----------------||
A |----------------|----------------|----------------|----------------||
E |----------------|----------------|----------------|----------------||

E |----------------|----------------|-5--5--5--------|-5--5--5--------||
B |-3--3--3--------|-5--5--5--------|-7--7--7--------|-7--7--7--------||
G |-5--5--5--------|-7--7--7--------|-7--7--7--------|-7--7--7--------||
D |-5--5--5--------|-7--7--7--------|----------------|----------------||
A |----------------|----------------|----------------|----------------||
E |----------------|----------------|----------------|----------------||

E |----------------|----------------|-5--5--5--------|-3--3--3--------||
B |-3--3--3--------|-5--5--5--------|-7--7--7--------|-5--5--5--------||
G |-5--5--5--------|-7--7--7--------|-7--7--7--------|-5--5--5--------||
D |-5--5--5--------|-7--7--7--------|----------------|----------------||
A |----------------|----------------|----------------|----------------||
E |----------------|----------------|----------------|----------------||

E |-1--1--1--------|-3--3--3--------|----------------|----------------||
B |-3--3--3--------|-5--5--5--------|-7--7--7--------|-7--7--7--------||
G |-3--3--3--------|-5--5--5--------|-9--9--9--------|-9--9--9--------||
D |----------------|----------------|-9--9--9--------|-9--9--9--------||
A |----------------|----------------|----------------|----------------||
E |----------------|----------------|----------------|----------------||

INTRO
P.M.-------------------------------------------------------------------
E |----------------|----------------|-3--5--5--------|--3--5--5-------||
B |-2--3--3--------|-5--7--7--------|----------------|----------------||
G |----------------|----------------|----------------|----------------||
D |----------------|----------------|----------------|----------------||
A |----------------|----------------|----------------|----------------||
E |----------------|----------------|----------------|----------------||

P.M.-------------------------------------------------------------------
E |----------------|----------------|-3--5--5--------|-3--5--5--------||
B |-2--3--3--------|-5--7--7--------|----------------|----------------||
G |----------------|----------------|----------------|----------------||
D |----------------|----------------|----------------|----------------||
A |----------------|----------------|----------------|----------------||
E |----------------|----------------|----------------|----------------||

P.M.-------------------------------------------------------------------
E |----------------|----------------|-3--5--5--------|-3--5--5--------||
B |-2--3--3--------|-5--7--7--------|----------------|----------------||
G |----------------|----------------|----------------|----------------||
D |----------------|----------------|----------------|----------------||
A |----------------|----------------|----------------|----------------||
E |----------------|----------------|----------------|----------------||

P.M.-------------------------------------------------------------------
E |-1--1--1--------|-3--3--3--------|----------------|----------------||
B |----------------|----------------|-7--7--7--------|-7--7--7--------||
G |----------------|----------------|----------------|----------------||
D |----------------|----------------|----------------|----------------||
A |----------------|----------------|----------------|----------------||
E |----------------|----------------|----------------|----------------||

OUTRO


E |----------------|----------------|-5--5--5--------||
B |-3--3--3--------|-5--5--5--------|-7--7--7--------||
G |-5--5--5--------|-7--7--7--------|-7--7--7--------||
D |-5--5--5--------|-7--7--7--------|----------------||
A |----------------|----------------|----------------||
E |----------------|----------------|----------------||
Tap to rate this tab
# A B C D E F G H I J K L M N O P Q R S T U V W X Y Z