Song name
# A B C D E F G H I J K L M N O P Q R S T U V W X Y Z

Von - Veadtuck tab

VON - Veadtuck
Tune: D

Duration Legend
---------------
W - whole
H - half
Q - quarter
E - 8th
S - 16th
T - 32nd

Tablature Legend
----------------
(n) - ghost note


INTRO:

     W                   E  E  Q    E  E  E  E     H        Q.     E   
D||-------------------|-------------------------|---------------------|
A||-------------------|-------------------------|---------------------|
F||-------------------|-------------------------|---------------------|
C||-------------------|-------------------------|---------------------|
G||--5----------------|----------------------5--|------------------5--|
D||--3----------------|--7--6--4----7--6--3--3--|------------------3--|


  H        E.  S   S E.     W                   E  E  Q    E  E  E  E   
-------------------------|-------------------|-------------------------|
-------------------------|-------------------|-------------------------|
-------------------------|-------------------|-------------------------|
-------------------------|-------------------|-------------------------|
---------------5--10-5---|-------------------|----------------------5--|
---------------------3---|-------------------|--7--6--4----7--6--3--3--|


  H        Q.     E     W                    Q     E   S  S  Q.      E   
---------------------|-------------------|------------------------------|
---------------------|-------------------|------------------------------|
---------------------|-------------------|------------------------------|
---------------------|-------------------|--------12--12-13-12----------|
------------------5--|--5----------------|--10----------------------10--|
------------------3--|--3----------------|------------------------------|


   E  Q     Q     E    E    E      Q     E   S  S  Q.      E   
-------------------------------|------------------------------|
-------------------------------|------------------------------|
-------------------------------|------------------------------|
-----------11----12--(12)--11--|--------12--12-13-12----------|
--10--9------------------------|--10----------------------10--|
-------------------------------|------------------------------|


   E  Q     Q     E    E    E      Q     E   S  S  Q.      E   
-------------------------------|------------------------------|
-------------------------------|------------------------------|
-------------------------------|------------------------------|
-----------11----12--(12)--11--|--------12--12-13-12----------|
--10--9------------------------|--10----------------------10--|
-------------------------------|------------------------------|


   E  Q     Q     E    E    E      Q     E   S  S  Q.      E   
-------------------------------|------------------------------|
-------------------------------|------------------------------|
-------------------------------|------------------------------|
-----------11----12--(12)--11--|--------12--12-13-12----------|
--10--9------------------------|--10----------------------10--|
-------------------------------|------------------------------|


   E  Q     Q     E    E    E     H        E  E  E  E     H        E  E  E  E   
-------------------------------|-----------------------|-----------------------|
-------------------------------|-----------------------|-----------------------|
-------------------------------|-----------------------|-----------------------|
-----------11----12--(12)--11--|--7-----------8--7--5--|--------------7--5--4--|
--10--9------------------------|--5-----------6--5--3--|--------------5--3--2--|
-------------------------------|-----------------------|-----------------------|


  H        E  E  E   E      W                 
-------------------------|-------------------|
-------------------------|-------------------|
-------------------------|-------------------|
-------------------------|-------------------|
--------------6--6--(5)--|-------------------|
--------------4--4---3---|-------------------|


  Q    E   S  S  E   S  S  E  S S  
----------------------------------|
----------------------------------|
----------------------------------|
--7----7--12-12-12--11-11-11--8-8-|
--5----5--10-10-10---9--9--9--6-6-|
----------------------------------|


  T T T T T T T T  T  T  T  T  T  T  T  T T T T T T T T T  T  T  T  T  T  T  T  
--------------------------------------------------------------------------------
--------------------------------------------------------------------------------
--------------------------------------------------------------------------------
--7-7-7-7-7-7-7-7-12-12-12-12-11-11-11-11-7-7-7-7-7-7-7-7-12-12-12-12-11-11-11-1
--5-5-5-5-5-5-5-5-10-10-10-10--9--9--9--9-5-5-5-5-5-5-5-5-10-10-10-10--9--9--9--
--------------------------------------------------------------------------------


  S E  T T H.             
------------------------||
------------------------||
------------------------||
--7---------------------||
--5----5-5-5------------||
-------3-3-3------------||
Tap to rate this tab
# A B C D E F G H I J K L M N O P Q R S T U V W X Y Z