Song name
# A B C D E F G H I J K L M N O P Q R S T U V W X Y Z

Vonray - Apology tab

Help us improve GuitareTab! Take a short survey!
VonRay - Apology
By:Andrew Mcshan(Guitarguyx182@aol.com)

Intro
       C              D               Em7
e|-------------------2----------------------0------------------------------|
B|-0h1----------0--3---3--3---------0---------0------------------0---------|
G|---------0-------------2-------0---0-------------------------0----0------|
D|-------2---2-----------------2-------2-----------x2-------2---------2----|
A|------3--3------------------2----------2----------------2-------------2--|
E|-------------------------------------------------------------------------|

Verse
   Em             C             G               D
e|------------------------------3---------------2--------------------|
B|----------------1-------------3---------------3--------------------|
G|----------------0-------------0---------------2--------------------|
D|-2--------------2-------------0------------------------------------|
A|-2--------------3-------------2------------------------------------|
E|-0----------------------------3------------------------------------|

Chorus
   C       G         D   
e|---------3---------2---0--2--3--0--2-------------------------------|
B|-1-------3---------3---3--3--3--3--3-------------------------------|
G|-0-------0---------2---2--2--2--2--2-------------------------------|
D|-2-------0---------------------------------------------------------|
A|-3-------2---------------------------------------------------------|
E|---------3---------------------------------------------------------|

Solo
e|---------------------------------------------------------------------------|
B|-2/3-3-5^-5/3-3-5/3-3-1-0-1------------------------------------------------|
G|----------------------------2/4-0-0-----------------------0-2/4/2----------|
D|------------------------------------4/5-2-4/5/4-4/5-2-4/5------------------|
A|---------------------------------------------------------------------------|
E|---------------------------------------------------------------------------|

e|-3-2-3----5-7-2/3-2/3-3-3-2/3/2-3-3-----2/3/2-2/3/7--7/5/3~~~--------------|
B|-------5-------------------------------------------------------------------|
G|---------------------------------------------------------------------------|
D|------------------------------------4/5------------------------------------|
A|---------------------------------------------------------------------------|
E|---------------------------------------------------------------------------|


Come on girl I know youre there
Now pick up that phone
Dont act like you dont care
Well Ive called for hours
Seems like days
Ive got so much to say
Dont act this way
Ya know it isnt fair

Now you know I wouldnt hurt you
You know thats not the game I play
Pick up the phone and listen
Just listen to what I have to say

Sometimes I feel youre out to get me
With these little games that you insist to play
What you dont know is one sharp word can cut me like a knife
Hurt me deep into the shadows where I stay

Now you know I wouldnt hurt you
You know thats not the game I play
Pick up the phone and listen
Just listen to what I have to say

Now you know I wouldnt hurt you
You know thats not the game I play
Pick up the phone and listen
Just listen to what I have to say
Related for Apology tab