Song name
# A B C D E F G H I J K L M N O P Q R S T U V W X Y Z

Voodoo Glow Skulls - Bulletproof tab

Help us improve GuitareTab! Take a short survey!
Voodoo Glow Skulls
"Bulletproof"
tabbed out by Daaaaaaavid
daaaaaaavid@hotmail.com

Boy, was my tab great..before I got logged out and
lost it permenantly. Thanks a lot, GTU Management.
So now I'm taking it out on all of you and I'm
just giving you the chords instead of nice drawn
out tablature..blame it on the Management.

Chords:

   A5  Eb5 D5  G5  F5  C5  B5  B5  C5   Db5  D5
                               II  II        II
e|----------------------------------------------|
B|----------------------------------------------|
G|-----8---7-----------5---4--------------------|
D|-7---8---7---5---3---5---4---9---10---11---12-|
A|-7---6---5---5---3---3---2---9---10---11---12-|
E|-5-----------3---1-----------7---8 ---9 ---10-|

   C   A   F   Ab5

e|-8---5---1-----|
B|-8---5---1-----|
G|-9---6---2-----|
D|-------------6-|
A|-------------6-|
E|-------------4-|

Intro:

I
A5-Eb5-D5-G5-F5-C5-B5-G5

II
A5-Eb5-D5-G5-F5-C5-B5-G5-A5

III
A5-Eb5-D5-G5-F5-C5-B5-G5-A5-B5(II)

Verse:

I
C5(II)-Db5-D5(II)-G5-A5-G5-A5-B5(II)

II
C5(II)-Db5-D5(II)-G5-A5-G5-A5

Chorus:

I
C-A-F

II
C5-Ab5-A5

III
C5-Ab5-A5-B5

Order:

Intro (I, II, I, III)
Verse (I, I, I, II)
Intro (I, III)
Verse (I, I, I, II)
Chorus (I, I, II, II, II, II, II, II, II, III)
Verse (I, I, I, II)
Intro (I, II, I, II)
Chorus (I, I, I, I, II, II, II, II, II, II, II, III)
Verse (I, I, I, II)
Related for Bulletproof tab