Song name
# A B C D E F G H I J K L M N O P Q R S T U V W X Y Z

Voodoo Glow Skulls - Dd Dont Like Ska tab

The Voodoo Glow Skulls
DD Don't Like Ska
By: some dude in Idaho

just figure it out

Intro/Verse
E|---------------------------------------------------|
B|---------------------------------------------------|
G|---------10---------------10-7---------------------|
D|---10----10---------10----10-7---------------------|
A|---10-----8---------10----8--9---------------------|
E|----8----------------8-----------------------------|


Breakdown
E|----------------------------------------------------|
B|----------------------------------------------------|
G|-----------------10---------------------------------|
D|---10--8-----10--10---------------------------------|
A|---10--8-----10---8---------------------------------|
E|----8--6------8-------------------------------------|


Chorus
E|---------------------------------------------------|
B|---------------------------------------------------|
G|--------------8--8-------------10--8--10--8--------|
D|---10--10-----8--8-----10--10--10--8--10--8--------|
A|---10--10-----6--6-----10--10---8--6---8--6--------|
E|----8---8---------------8---8----------------------|


Outro
E|---------------------------------------------------|
B|---------------------------------------------------|
G|-------10---------10-------------10---------10--12-|
D|---10--10-----10--10--12-----10--10----10---10--12-|
A|---10---8-----10---8--12-----10---8----10---8---10-|
E|----8----------8------10------8---------8----------|
Tap to rate this tab
# A B C D E F G H I J K L M N O P Q R S T U V W X Y Z