Song name
# A B C D E F G H I J K L M N O P Q R S T U V W X Y Z

Voodoo Glow Skulls - The Kids Will Have To Pay tab

this is my first tab so im sure it sucks.but if you do for some reason use it somewhere, give me credit

Intro
|--------------------------------------------------|
|--------------------------------------------------|
|-3------3-----------------------------------------|
|-3------3-----3-----------------------------------|
|-1------1-----3-----------------------------------|
|--------------1-----------------------------------|


Verse - with some weird harmonics or shit going on, but this is the base of what they are playing
pm................................
|--------------------------------------------------|
|--------------------------------------------------|
|--------------------------------------------------|
|-3333333333333333333------------------------------|
|-1111111111111111111-33333333333------------------|
|---------------------11111111111------------------|
  

chorus

|--------------------------------------------------|
|--------------------------------------------------|
|--------------------------------------------------|
|-55--5--5--5------33--3-55--5--5--5---------------|
|-33--3--3--3-55-5-11--1-33--3--3--3-55-5-33-3-----|
|-------------33-3-------------------33-3-11-1-----|


bridge - not too sure about this part but hey it works

|--------------------------------------------------|
|--------------------------------------------------|
|--------------------------------------------------|
|-5555555555555555-777777777-----------------------|
|-3333333333333333-555555555-888888888-------------|
|----------------------------666666666-------------|



|--------------------------------------------------|
|--------------------------------------------------|
|--------------------------------------------------|
|-5555555555555555-7-8-7-8-7-----------------------|
|-3333333333333333-5-6-5-6-5--8--------------------|
|-----------------------------6--------------------|

pm                   . . . . . .      . . . . . .
|--------------------------------------------------------|
|--------------------------------------------------------|
|--------------------------------------------------------|
|-5555555555555555-5-------------3--5-------------3--5---|
|-3333333333333333-3-4-5-4-5-4-5-1--3-4-5-4-5-4-5-1--3---|
|--------------------2-3-2-3-2-3------2-3-2-3-2-3--------|
Tap to rate this tab
 
# A B C D E F G H I J K L M N O P Q R S T U V W X Y Z