Song name
# A B C D E F G H I J K L M N O P Q R S T U V W X Y Z

Voodoo Glow Skulls - Dia De Los Muertos tab

This is my 1st Tab and at the bottom you can see the song's body.
Greetings from Mexico. Chan :)

intro
e|-------------------------------------------|
B|-------------------------------------------|
G|-------------------------------------------|
D|77x7--8--10--8--7--8---77x7--8--10--8------|
A|55x5--6--8---6--5--6---55x5--6--8---6--777-|
E|---------------------------------------555-|
                                                            
e|-------------------------------------------|
B|-------------------------------------------|
G|---------------------------------------777-|
D|77x7--8--10--8--7--8---77x7--8--10--8--555-|
A|55x5--6--8---6--5--6---55x5--6--8---6------|
E|-------------------------------------------|


"verse" riff
e|-----------------------------------------|
B|-----------------------------------------|
G|-----------------------------------------|
D|-----------------------------------------|
A|--1-------1-------1-------1-653----------|
E|3---1-2-3---431-3---1-2-3----------------|

"main" riff
e|---------------------------------------------|\
B|---------------------------------------------| \
G|---------------------------------------------|  \
D|------1p0h1-------------------1p0h1----------|  / x3
A|5p3h5-------3p1h3-5p3h5-5p3h5-------3p1h3-5--| /
E|---------------------------------------------|/

e|---------------------------------------------|
B|---------------------------------------------|
G|---------------------------------------------|
D|------1p0h1-------------------1p0h1----------|
A|5p3h5-------3p1h3-5p3h5-5p3h5-------3-3-3-5--|
E|---------------------------------------------|

bridge 1
e|-------------------------------------|
B|-------------------------------------|
G|7~-8-8--5~-3~------------------------|
D|7~-8-8--5~-3~------------------------|
A|5~-6-6--3~-1~------------------------|
E|-------------------------------------|

bridge 2 (im not sure about this but sounds pretty cool)
e|---------------------------------------------------------|
B|---------------------------------------------------------|
G|---------------------------------------------------------|
D|6/77777--6/77777--6/77777--6/77777-----------------------|
A|6/77777--6/77777--6/77777--6/77777-----------------------|
E|4/55555--4/55555--4/55555--4/55555-----------------------|

now "the body"

intro ~~~~~~ x4
"verse" riff x2
intro ~~~~~~ x2
"verse" riff x4
"main" riff  x1 
intro ~~~~~~ x2
"verse" riff x4
bridge 1 & 2 x3
bridge 1 ~~~ x1
"main" riff  x1
Tap to rate this tab
 
# A B C D E F G H I J K L M N O P Q R S T U V W X Y Z