Song name
# A B C D E F G H I J K L M N O P Q R S T U V W X Y Z

Voodoo Glow Skulls - Voodoo Anthem tab

Artist
:voodoo glow skulls

song
:voodoo anthem

tabbed by
: chris-piss

intro:
listen to the song to get how many times you have to strum dude
e|----------------------------------------------------------------------|
b|----------------------------------------------------------------------|
g|-----------7-7-7-7---5-5-5-5--3---------------------------------------|
d|-5-5-5-5---7-7-7-7---5-5-5-5--3---------------------------------------|
a|-5-5-5-5---5-5-5-5---3-3-3-3--1---------------------------------------|
e|-3-3-3-3--------------------------------------------------------------|
   . . . .
palm mute.                                            also the verse ^

chorus:
e|----------------------------------------------------------------------|
b|----------------------------------------------------------------------|
g|------7-7--3-3--3-3---------5-5--5-5--10-10---------------------------|
d|-5-5--7-7--3-3--3-3----5-5--5-5--5-5--10-10---------------------------|
a|-5-5--5-5--5-5--1-1----5-5--7-7--3-3--8--8----------------------------|
e|-3-3-------------------3-3--------------------------------------------|
fast strumming


little solo:
e|----------------------------------------------------------------------|
b|----------------------------------------------------------------------|
g|--7-7--10-10--5-5--7-7--7-7--10-10--5-5-------------------------------|
d|--7-7--10-10--5-5--7-7--7-7--10-10--5-5-------------------------------|
a|--5-5--8--8---3-3--5-5--5-5--8--8---3-3-------------------------------|
e|----------------------------------------------------------------------|
                             listen to the song to see how many strummings are needed


second little solo:
e|---------------------------------------------------------------------|
b|---------------------------------------------------------------------|
g|-------------7-7-7-7-7--5---------------7-7-7-7--10--7---------------|
d|--5-5-5-5----7-7-7-7-7--5---5-5-5-5-5---7-7-7-7--10--7---------------|
a|--5-5-5-5----5-5-5-5-5--3---5-5-5-5-5---5-5-5-5--8---5---------------|
e|--3-3-3-3-------------------3-3-3-3-3--------------------------------|
    . . . .                   . . . . .
palm mute.


the whole tab isn't so acurate but im pretty sure it'll help you play it better
Tap to rate this tab
# A B C D E F G H I J K L M N O P Q R S T U V W X Y Z