Song name
# A B C D E F G H I J K L M N O P Q R S T U V W X Y Z

Voxtrot - Mother Sisters Daughters And Wives tab

This is just the tab for the instrumental segues mentioned in the other tab.

e|-14----12----12---------------------------------|
b|----12---(12)------------12----------12-14-15---|
g|----------------14-11-14----14-11-14------------|
d|------------------------------------------------|
a|------------------------------------------------|
e|------------------------------------------------|

e|-14----12----12-----------------------------|
b|----12---(12)------------12-----------------|
g|----------------14-11-14---(14)-------------|
d|--------------------------------14141414-12-|
a|--------------------------------------------|
e|--------------------------------------------|   (play both parts again)
Tap to rate this tab
# A B C D E F G H I J K L M N O P Q R S T U V W X Y Z