Song name
# A B C D E F G H I J K L M N O P Q R S T U V W X Y Z

Voxtrot - The Start Of Something tab

This is the solo for "The Start of Something" by Voxtrot, from the "Raised by Wolves"
The chords for the rest of the song have been transcribed by slaaz- so see that tab first,
learn the solo here. This tab should be a bit more accurate than the solos (version 1 & 
already posted, which has the solo written all up and down the neck.


Listen to the song to get the exact rhythm. Solo starts at 1:55.

e|----------------------------------------------------------------------------|
B|----------------------------------------------------------------------------|
G|--------5--555------------------------8---8-------5/6--5--------------------|
D|------6--------888--666--555---------8---8-(8)-----------8-6-5--------------|
A|--6-8---------------------------66/8---------------------------8------------|
E|----------------------------------------------------------------------------|


e|----------------------------------------------------------------------------|
B|--------6---66---6--------9--------9----------------------------------------|
G|--3/6-6---6----6-----------8-5-5h8--8----------8---88---8-------------------|
D|-------------------------------------6----6h8---8----8---(8)----------------|
A|----------------------------------------------------------------------------|
E|----------------------------------------------------------------------------|


e|----------------------------------------------------------------------------|
B|------6--66-6----999-888-666------------------------------------------------|
G|--5h6--6---6-----------------8--6--5----------------------------------------|
D|----------------------------------------------------------------------------|
A|----------------------------------------------------------------------------|
E|----------------------------------------------------------------------------|

Tip: You can also use the Ab (G#) Major Scale (below) to improvise over the song.

e|---------------------------------6-8-9--------------------------------------------|
B|---------------------------6-8-9*-------------------------------------------------|
G|---------------------5-6-8--------------------------------------------------------|
D|---------------5-6*-8-------------------------------------------------------------|
A|---------4-6-8--------------------------------------------------------------------|
E|---4*-6-8-------------------------------------------------------------------------|

Please send any corrections, comments, etc to Navid at nrojiani@vt.edu
Tap to rate this tab
 
# A B C D E F G H I J K L M N O P Q R S T U V W X Y Z