Song name
# A B C D E F G H I J K L M N O P Q R S T U V W X Y Z

Vreid - I Krig tab

Hi this is Violin intro from I Krig that you can perform on guitar
Tab by: sovi12@azet.sk, contact me if you have any questions
Artist: Vreid
Song title: I Krig
Album title: I Krig (2007)
Tuning: Standard EH(B)GDAE

h - hammer on
p - pull off

E|------------------------------------------------~~----------|
H|-------------12-10---------------------10-12-15-12----------|
G|-9--11-12--9-------12-11-9--7-9--11-12----------------------|
D|------------------------------------------------------------|
A|------------------------------------------------------------|
E|------------------------------------------------------------|

E|------------------------------------------------------------|
H|--------------12-11h12p11-------12--11-12-12-------------~--|
G|-9-11-12-11---------------12-11---------------8-9-11-9-8-9--|
D|------------------------------------------------------------|
A|------------------------------------------------------------|
E|------------------------------------------------------------|

E|----------------------------------------------~~------------|
H|---------12--10----------------------12-12-10-12------------|
G|11-12-11---------12-11-12-9---11-12-9-----------------------|
D|------------------------------------------------------------|
A|------------------------------------------------------------|
E|------------------------------------------------------------|

E|------------------------------------------------------------|
H|--------------12-11h12p11-------12--11-12-12---------~------|
G|-9-11-12-11---------------12-11---------------8-9-11-9------|
D|------------------------------------------------------------|
A|------------------------------------------------------------|
E|------------------------------------------------------------|
Tap to rate this tab
 
# A B C D E F G H I J K L M N O P Q R S T U V W X Y Z