Song name
# A B C D E F G H I J K L M N O P Q R S T U V W X Y Z

Vreid - Svart tab

Not the whole song!

It's been a while since I've posted one of these. I only wrote out the parts that I 
personally wanted to learn, so if the parts you wanted aren't here send me a message or try 
it out for yourself!


Intro (clean):
e------------------|----------0-------|------------------|------------------|
B----------0-------|------------0-----|----------0-------|-------------0----|
G-----2------2---2-|-----2--------2---|-----2------2---2-|-----0---------0--|
D---2---2------2---|---2---2--------2-|---2---2------2---|---2---2---2------|
A-0----------------|-0----------------|-0----------------|-3-------2--------|
E------------------|------------------|------------------|------------------|


Verse 1:
e------------------------------------|--------------------------------------|
B------------------------------------|--------------------------------------|
G-------------------2--222-222-222---|--------------------------------------|
D--2-------3-2-2-2--3--333-333-333---|-2-------3-2-2-2---1-------2--1h2-----|
A--0--000--0-0-3-0--3--333-333-333---|-0--000--0-0-3-0---2--222--3--2-------|
E------------------------------------|--------------------------------------|
      ...              ... ... ...        ...               ...


e------------------------------------|--------------------------------------|
B------------------------------------|--------------------------------------|
G-------------------2---2-2-2-2-2-2--|--------------------------------------|
D--2-------3-2-2-2--3---3-3-3-3-3-3--|-2--222222222222--1--111111111111-----|
A--0--000--0-0-3-0--3---3-3-3-3-3-3--|-3--333333333333--2--222222222222-----|
E------------------------------------|-3--333333333333--2--222222222222-----|
      ...                                 ............     ............


Verse 2:
e----------------|----------------|---------------|-------------------------|
B----------------|----------------|---------------|-------------0-----------|
G--------------0-|--------------0-|-------------0-|-----0---------0---------|
D-2-x----3---0---|-2-x--------0---|-2-x---3---0---|---2---2---2-------------|
A-0-x--0-2-3-----|-0-x--0-2-3-----|-0-x-0-2-3-----|-3-------2---------------|
E----------------|----------------|---------------|-------------------------|

...then there's some short solo...
...and of course various repeats of each part. Enjoy!
Tap to rate this tab
# A B C D E F G H I J K L M N O P Q R S T U V W X Y Z