Song name
# A B C D E F G H I J K L M N O P Q R S T U V W X Y Z

Vulgaires Machins - Pistache tab

Intro

Jouer la corde "E"  vide entre chaque note. Quand il faut la jouer plus d'une
fois, je vais vous indiquez le nombre de fois. Si vous ne comprenez pas couter la tune

ex: 
e---------------
b---------------
g---------------
d---------------
a----8----8-----
e--0----0---...etc

/ = slide


e|---------------------------------------------------------------------------
b|---------------------------------------------------------------------------
g|-------------------8--9----------------------------------------------------
d|--11--9-----11--9-------9--7-----7--6--9-------------6/7-----7-------------
a|-------------------------------------------7----7--9-----9-----9---11------
E|---------5x-------------------3x-------------3x------------3x---------3x---

e|------------------------------------------------------------------------------
b|------------------------------------------------------------------------------
g|------------------------------------------------------------------------------
d|----------------9--8--9--6--7--8--9----7--6---------6---66--0--6--0--6--6--6--
a|--9--7----6--7-----------------------9------7--6--7---7----------------7--7--7
E|-------3x---------------------------------------------------------------------

e|------------------------------------------------------------------------------
b|------------------------------------------------------------------------------
g|------------------------------------------------------------------------------
d|--9--8--9--6--7--8--9---7--6------------6---6--0--6--0--6--6--6 (laiss soner)
a|----------------------9-------6/7--6--7---7---------------7--7----------------
E|------------------------------------------------------------------------------

Ya deux accord, gosser plusieurs temps sur chaque,palm mute (couter la tune)
e|----------------|
b|----------------|
g|--------------2-|
d|--2-----------1-|
a|--2-----------2-|
E|--0-------------|


Aprs que guillaume ai fini de chanter sa fait qqch du genre

e|--------------------------------------------------
b|--------------------------------------------------
g|--4------8-9--------------------------------------
d|--4--x8--8-9--x8--9------7------6------9--2-----5-
a|--2------6-7------9--x3--7--x8--6--x2--9--2-----5-
E|------------------7------5------4------7--0-----3-

Vous pouvez vous arranger avec la fin si ya des question ou commentaires
dr_canabis101@hotmail.com
Tap to rate this tab
# A B C D E F G H I J K L M N O P Q R S T U V W X Y Z