Song name
# A B C D E F G H I J K L M N O P Q R S T U V W X Y Z

Vulgaires Machins - Pesticide tab

Artiste: Les Vulgaires Machins
Album: 24:40
Chanson: Pesticide (6)

Intro:
Palm Mute
  G#              A  Em C#  A B C 
|---------------------------------|
|---------------------------------|
|-----------------------666---4-5-|           (x4)
|-666666666666666-777222666-7-4-5-|
|-666666666666666-777222444-7-2-3-|    
|-444444444444444-555000----5-----|

Ensuite c'est la meme chose, mais avec distortion. (x2):
|---------------------------------|
|---------------------------------|
|-----------------------666---4-5-|           (x4)
|-666666666666666-777222666-7-4-5-|
|-666666666666666-777222444-7-2-3-|    
|-444444444444444-555000----5-----|
Le plus beau jardin de fleur,
Est parsemé de mauvais herbes,
Quand le maire pleure,
Sa impeste,


Apres:
|-----------------|
|-----------------|
|-----------------|
|-666666662222222-|
|-666666662222222-|
|-444444440000000-|

|-------------|
|-------------|
|-------------|
|-------2-----|   (4x)
|-----0---4-2-|
|-0-4---------|
Des punks s'asseyaient sur un banc 
d'une rue Acchalandée 
pour se tâter la postérieur 
Nonchalament 
La municipalité Les trouvant dégoutant 
ne pouvait plus tolérer 
Dans sa vocation de sauver les honnêtes habitants du quartier 
Au nom de la ville les Insignifiants supprimèrent le banc. 

ensuite:
|--------------------------|-----|
|-----------------------8b-|-----|
|-999999999776644667799----|-----|
|-999999999776644667799----|-2---|
|-777777777554422445577----|-2---|
|--------------------------|-0---|
J'ai vu le conseil de ville 
À la télé communautaire 
J'ai vu le maire... imbécile 

Un peu apres:
|----------------|
|----------------|
|------------666-|
|222-666-777-666-|
|222-666-777-444-|
|000-444-555-----|
Le plus gros jardin de mauvais 
Herbes insfesté d'émanations 
Puantes et malsaines a sûrement 
Une fleur bienfaisante dissimulée 

Mais la ville ne la sent pas 
Elle se meurt dans la misère.


Merci
Mike Wine
Tap to rate this tab
# A B C D E F G H I J K L M N O P Q R S T U V W X Y Z