Song name
# A B C D E F G H I J K L M N O P Q R S T U V W X Y Z

Vulgaires Machins - Mourir Au Bout Dune Corde tab

 [Intro Partie 1:]
|------------------|
|------------------|
|------------------|
|-4~-4~------------|
|-4~-4~-Pick slide-|
|-2~-2~------------|


 [Intro Partie 2:]
Guitar 1
|---------|
|---------|
|---7---6-| (2x)
|-4-7-7-6-|
|-4-5-7-4-|
|-2---5---|

 Guitar 2
|-------------------------------------------------|
|-------------------------------------------------|
|-------------------------------------------------|
|-4--6-7--6--7-9--7--9-11--9-11-12-11-7---------4-|
|---------------------------------------5---7-----|
|-------------------------------------------------|


 [Couplet 1:]
|---------|
|---------|
|---7---6-|(2x)
|-4-7-7-6-|
|-4-5-7-4-|
|-2---5---|


 |----------|----------------------|
 |----------|----------------------|
 |-11-7---6-|-11-x-7-x-7-x-7-7---6-|
 |--9-7-7-6-|--9-x-7-x-7-x-7-7-7-6-|
 |--9-5-7-4-|--9-x-5-x-5-x-5-5-7-4-|
 |------5---|------------------5---|
Pm . . . .

|---------|
|---------|
|---7---6-|(2x)
|-4-7-7-6-|
|-4-5-7-4-|
|-2---5---|

 |----------|
 |----------|
 |-11-7---6-|
 |--9-7-7-6-|
 |--9-5-7-4-|
 |------5---|
Pm . . . .


 [Refrain:]
|----------------|--------------------|
|----------------|--------------------|
|------/9-7------|-7-7-7-5~--9-9-9-7~-|
|-4-7-2/9-7-7-2~-|-7-7-7-5~--9-9-9-7~-|
|-4-7-2/7-5-7-2~-|-5-5-5-3~--7-7-7-5~-|
|-2-5-0-----5-0~-|--------------------|



 [Couplet 2:]
|---------|
|---------|
|---7---6-|(2x)
|-4-7-7-6-|
|-4-5-7-4-|
|-2---5---|


 |----------|----------------------|
 |----------|----------------------|
 |-11-7---6-|-11-x-7-x-7-x-7-7---6-|
 |--9-7-7-6-|--9-x-7-x-7-x-7-7-7-6-|
 |--9-5-7-4-|--9-x-5-x-5-x-5-5-7-4-|
 |------5---|------------------5---|
Pm . . . .

|---------|
|---------|
|---7---6-|(2x)
|-4-7-7-6-|
|-4-5-7-4-|
|-2---5---|

 |----------|
 |----------|
 |-11-7---6-|
 |--9-7-7-6-|
 |--9-5-7-4-|
 |------5---|
Pm . . . .


 [Refrain:]
|-------------|
|-------------|
|------/9-7---|
|-4-7-2/9-7-7-|
|-4-7-2/7-5-7-|
|-2-5-0-----5-|


 [Break (Encore une vie qui s'évapore...):]
|---------------|
|---------------|
|---9-7---9~-7~-|
|-7-9-7-7-9~-7~-|
|-7-7-5-7-7~-5~-|
|-5-----5-------|


 [Bout acoustique (selon moi):]
|--------------------|
|--------------------|
|--------------------|
|-9----0--4--2-------|
|--7-/2-/5--0---5--4-|
|--------------5--2--|


 [Après le bout acoustique:]
|---------|
|---------|
|-4---7---| (4x)
|-4-5-7-4-|
|-2-5-5-4-|
|---3---2-|

 Guitar 2
|-------------------------------------------------|
|-------------------------------------------------|
|-------------------------------------------------|
|-4--6-7--6--7-9--7--9-11--9-11-12-11-7---------4-| (2x)
|---------------------------------------5---7-----|
|-------------------------------------------------|


 [Couplet 3:]
|---------|
|---------|
|-4---7---| (2x)
|-4-5-7-4-|
|-2-5-5-4-|
|---3---2-|

 |---------|----------------------|
 |---------|----------------------|
 |-4---7---|-4-x-------------7----|
 |-4-5-7-4-|-4-x-5-x-5-x-5-5-7--4-|
 |-2-5-5-4-|-2-x-5-x-5-x-5-5-5--4-|
 |---3---2-|-----3-x-3-x-3-3----2-|
Pm . . . .

|---------|
|---------|
|-4---7---| (2x)
|-4-5-7-4-|
|-2-5-5-4-|
|---3---2-|

 |---------|
 |---------|
 |-4---7---|
 |-4-5-7-4-|
 |-2-5-5-4-|
 |---3---2-|
Pm . . . .


 [Refrain et Outro:]
|-----------|
|-----------|
|-4-7-----7-|
|-4-7-7-5-7-|
|-2-5-7-5-5-|
|-----5-3---|

|------------|
|------------|
|-7-----7----|
|-7-7-5-7-7~-|
|-5-7-5-5-7~-|
|---5-3---5~-|

|-------------------|
|-------------------|
|----------7-7-7----|
|-5-5-5-4~-7-7-7-7~-|
|-5-5-5-4~-5-5-5-7~-|
|-3-3-3-2~-------5~-|



Paroles:

[Intro]

[Couplet 1]
Tout et puis plus rien
Jarriverai jamais croire que certains veulent tout perdre
Tout et puis plus rien
Jarriverai jamais comprendre un centime du geste

[Refrain]
Lamour dans lfond de la gorge
mourir ou devenir fou
mourir au bout dune corde

[Couplet 2]
tout et puis plus rien
jarriverai jamais croire que certains peuvent se donner la mort
tout au point de tout perdre
jarriverai jamais comprendre un centime du geste

[Refrain et Break]
Lamour dans lfond dla gorge
mourir ou devenir fou
encore une vie qui svapore
encore un autre qui prend la corde son cou
un autre quon laisse tomber dans ltrou
mourir au bout dune corde

[Bout Acoustique]
et tout devient drisoire
encore une vie svapore
encore un autre
qui sacre son camp

[Apres le bout acoustique]
[Couplet 3]
Tout et puis plus rien
Jarriverai jamais croire que certains veulent tout perdre
Tout et puis plus rien
Jarriverai jamais comprendre un centime du geste

[Refrain et outro]
Lamour dans lfond dla gorge
mourir ou devenir fou
encore une vie qui svapore
encore un autre qui prend la corde son cou
un autre quon laisse tomber dans ltrou
mourir au bout dune corde
Tap to rate this tab
 
# A B C D E F G H I J K L M N O P Q R S T U V W X Y Z