Song name
# A B C D E F G H I J K L M N O P Q R S T U V W X Y Z

Vunk - Doi Somnambuli tab

Verse:
e |-5-5-5-5-5----1-1-1-1-1------------------3-3-3-3-3----|
B |-7-7-7-7--7----3-3-3-3-3----5-5-5-5-5----5-5-5-5-5----|
G |-----------------------------7-7-7-7-7------------------|
D |---------------------------------------------------------|
A |---------------------------------------------------------|
E |---------------------------------------------------------|

Chorus:

e |----------------------------------------------------------------------1-1-1-1-1----|
B |-5-5-5-5--5----5-5-5-5--5-----3-3-3-3-3----2-2-2-2-2----5-5-5-5-5----3-3-3-3-3----|
G |-7-7-7-7--7----7-7-7-7--7-----5-5-5-5--5----4-4-4-4-4----7-7-7-7--7------------------|
D |--------------------------------------------------------------------------------------|
A |--------------------------------------------------------------------------------------|
E |--------------------------------------------------------------------------------------|


e |--------------|
B |-5-5-5-5--5----|
G |-7-7-7-7--7----|
D |---------------|
A |---------------|
E |---------------|

Bridge:

e |---------------------------1-1-1-1--1--------00-0-0--0------|
B |-3-3-3-3--3----2-2-2-2-2----3-3-3-3-3--------2-2-2-2--2------|
G |-5-5-5-5--5----4-4-4-4--4---------------------------------------|
D |-----------------------------------------------------------------|
A |-----------------------------------------------------------------|
E |-----------------------------------------------------------------|
Tap to rate this tab
# A B C D E F G H I J K L M N O P Q R S T U V W X Y Z