Song name
# A B C D E F G H I J K L M N O P Q R S T U V W X Y Z

Vydamo - Gonna Make It tab

#----------------------------------PLEASE NOTE---------------------------------#
#This file is the author's own work and represents their interpretation of the #
#song. You may only use this file for private study, scholarship, or research. #
#----------------------------------------------------------------------------#

Song: Gonna Make It
Artist: Vydamo (http://vydamo.com/)
Tabbed by GuitarNation

Video tutorial can also be found at;

https://www.facebook.com/pages/Guitar-Nation/399569093455533


Capo 5th Fret

F	C	G	D

Fill (0:14)

e --------(0)--------|
B ----3----5----3----|
G -------------------|
D -------------------|
A -------------------|
E -------------------|

Melody (0:23)

e --5--5--3-----3-----|
B -----------5-----5--|
G --------------------|
D --------------------|
A --------------------|
E --------------------|

e --5--5--3-----3--2--|
B -----------5--------|
G --------------------|
D --------------------|
A --------------------|
E --------------------|


I'm gonna make it
I'm gonna make it home for breakfast

Once you call the feet start running
Not too far to meet you
And you know all the people come and meet me in the backroom

I'm gonna make it
I'm gonna make it home for breakfast

F	E	D	(x2)
F	E	G

That's another night gone
Gonna head on home
Gonna do it again tomorrow

F	C	G	D

And the light has arrived

I'm gonna make it
I'm gonna make it home for breakfast

F	E	D

That's another night gone, gonna head on home
Gonna do it again tomorrow (can we do it again)

F	C	G	D

And the light has arrived

Outro (2:28)

D	Em	C

e -------------------|
B -------------------|
G -------------------|
D ----0----2---------|
A --------------3----|
E -------------------|

e --5--5----7--7--7----8--8----7-5-7--|
B ------------------------------------|
G ------------------------------------|
D ------------------------------------|
A ------------------------------------|
E ------------------------------------|

Light up the horizon
One night into one night

F	C	G	D

And the light has arrived

I'm gonna make it
I'm gonna make it home for breakfast


Please rate and check out Guitar Nation on Facebook for the video lesson for this song ;)
Tap to rate this tab
 
# A B C D E F G H I J K L M N O P Q R S T U V W X Y Z