Song name
# A B C D E F G H I J K L M N O P Q R S T U V W X Y Z

Waglewski Fisz Emade - Niebo Bez Dziur tab

Help us improve GuitareTab! Take a short survey!
Highlighted       Show chord diagrams
Zwrotki:
   C      C      F      G
e|-----------------1------3--|
B|---5------5------1------3--|
G|---5------5------2------4--|
D|---5------5------3------5--|
A|-3----x-3------------------|
E|-------------3-1----1-3----|

Refren: (raz tu, tam raz...)

   A#    F     C C/A# C xxC  CC B A#
e|-1-1---1-1------------------------\
B|-3-3---1-1------------------------ \
G|-3-3---2-2---5-5/3--5-xx5--55-4-3-  \
D|-3-3---3-3---5-5/3--5-xx5--55-4-3-  / x3 a potem
A|-1-1---3-3---3-3/1--3-xx3--33-2-1- /
E|-------1-1------------------------/

   A#    F     e   D
e|-1-1---1-1---0-------|
B|-3-3---1-1---0---3---|
G|-3-3---2-2---0---2---|
D|-3-3---3-3---2---0---|
A|-1-1---3-3---2---0---|
E|-------1-1---0-------|

Siedzę na ławce, sięgam głową do chmur
A niebo jest gładkie i nie ma w nim dziur
Siedzę na ławce, w głowie wino i śpiew
A w dole po trawce nogą brykać się chce

Raz tu, tam raz, nie raz
I trzask i prask już czas
By dać gdzieś znać, by Bg
Czy tu, czy tam zabrać mgł

Do nieba uciekam,
A ziemia ciągnie za frak
Niebo jeszcze zwleka
A w piekle miejsc już brak

Raz tu, tam raz, nie raz
I trzask i prask już czas
By dać gdzieś znać, by Bg
Czy tu, czy tam zabrać mgł

Do nieba uciekam,
A ziemia ciągnie za frak
Niebo jeszcze zwleka
A w piekle miejsc już brak
Related for Niebo Bez Dziur tab