Song name
# A B C D E F G H I J K L M N O P Q R S T U V W X Y Z

Wagons - Man Sold tab

Help us improve GuitareTab! Take a short survey!
-------------------------------------------------------------------------------
			     Man Sold - The Wagons
-------------------------------------------------------------------------------
Tabbed by: DiLN
Email: odin13@rock.com

Tuning: Standard (E A D G B e)

I haven't seen anything related to the wagons on the internet so i thought i'd start, 
are the riffs used to make up "Man Sold". Enjoy!

Intro:
e|-----------------------------------------------------------------------------|
B|---2h3p2-5-3-2-3-2-----------------------------------------------------------|
G|--------------------2--------------------------------------------------------|
D|-----------------------------------------------------------------------------|
A|-----------------------------------------------------------------------------|
E|-----------------------------------------------------------------------------|

Verse:
e|------------------------------------------------------------|
B|------------------------------------------------------------|
G|------4-----4------4------------7-----7------7--------------|
D|------4-----4------4------------7-----7------7--------------|
A|---2------------2------2--4--5------------5------5--4-------|
E|----------2-------------------------5-----------------------|

Chorus:
e|-----------------2--------------|
B|---------3-----3---------2------|
G|-------4-----2---------2--------|
D|-----4-----0---------2----------|
A|---2---------------0------------|
E|--------------------------------|

I Hope you liked my tab, email me with any corrections you have. i should be writing 
wagons tabs soon so check back often!

| /  slide up
| \  slide down
| h  hammer-on
| p  pull-off
| ~  vibrato
| +  harmonic
| x  Mute note
===============================================================================
Related for Man Sold tab