Song name
# A B C D E F G H I J K L M N O P Q R S T U V W X Y Z

Waifs - Lighthouse tab

-----------------------------------------------------------------
Lighthouse - The Waifs
-----------------------------------------------------------------

Tabbed by: Sean Sullivan
Email: themindsnexus@hotmail.com

Tuning: EADGBe

A deceptively tough song!


Intro (play the second half for the other theme of the song):

  Am                             C               G     Am
e|-3-----0------------------0-|--0-----------0------------------|
B|----------1----3p1----------|-----------1------------1--------|
G|-----------------------2----|--------0------------------------|
D|----2-------2-------2-------|-----2--------2------------------|
A|-0-----0-------0----------0-|--3-----3---------------0--------|
E|----------------------------|------------------3--4-----------|

   Am                       C           G     Am
e|-3--0-----------------0-|-0-----0-----------------|
B|-------3--1--3--1--3----|----1----1---------1-----|
G|------------------------|-----------2-------2-----|
D|----2-----2-----2-----2-|----2----2---------------|
A|-0-----0-----0-----0----|-3-----3-----------0-----|
E|------------------------|-------------3--4--------|



Play this leading into the break part:
    Am    G        Am    G
e|----------------------------------|
B|-----1--------0-----1-------0-----|
G|----------------------------------|
D|-----2-----0--0-----2----0--0-----|
A|--0--------------0----------------|
E|--------3--------------3----------|


Break (hope you find your....):

       Dm                            Am   G         Am    G
e|------------------3-------------|---------------------------------|
B|-----3-----3--3/5-----5\3--3p1--|-----1--------0-----1--------0---|
G|--------2-----------------------|---------------------------------|
D|-----0-----0------0--------0----|-----2-----0--0-----2-----0--0---|
A|--0-----0-----0-------0---------|--0--------------0---------------|
E|--------------------------------|-------3---------------3---------|

       Dm                E7
e|-------------------0-----0----0----0----0-----------------------------------------------------|
B|-----3-----3--3/5--------0----0----0----0-----------------------------------------------------|
G|--------2----------------7----7----7----7-----------------------------------------------------|
D|-----0-----0-------0-----6----6----6----6---...then into the main theme (part 2 of the intro--|
A|--0-----0-----0----------7----7----7----7-----------------------------------------------------|
E|-----------------------0----0----0----0-------------------------------------------------------|



Guitar Solo:
          Am                            Am
e|--------------------------------------5----|
B|--------------------------------------5----|
G|-----------------5p4------------------5----|
D|--------------7-------5-----5--7--7---7----|
A|-----------7-------------7------------7----|
E|--3--4--5-----------------------------5----|

    Am                               Am
e|-----------------------------------0----|
B|-----------------------------------1----|
G|-----------5p4---------------------2----|
D|--------7-------5------------------2----|
A|-----7-------------7--7\2-------0--0----|
E|--5------------------------3b-----------|

    Am                           Am                           Dm
e|-------------------------------5--------------------------------|
B|-------------------------------5--------------------------------|
G|-----------5p4-----------------5---5h7--4h5--2h4--0---0--1--2---|
D|--------7-------5-----5--7--7--7--------------------------------|
A|-----7-------------7-----------7--------------------------------|
E|--5----------------------------5--------------------------------|

Break chords, and then this little run:

e|------------------------------------------|
B|--13--10\8--------------------------------|
G|------------9\7--7p5----------------------|
D|----------------------7\5--5\2--2p0-------|
A|-------------------------------------2p0--|
E|------------------------------------------|


After the harmonica solo, play the main theme but only hit the bass notes. The rest of the
song uses the parts above, with the

only exception being the ending, which is:

                       Am          G     Am
e|---------------------3--1-----------------0--------|
B|---------------------------3--1-----------1--------|
G|-previous run then -----------------------2--------|
D|------------------------0-----0-----------2--------|
A|---------------------0-----0-----------0-----------|
E|---------------------------------3--4--------------|




| /  slide up
| \  slide down
| h  hammer-on
| p  pull-off
| ~  vibrato
| +  harmonic
| x  Mute note
Tap to rate this tab
 
# A B C D E F G H I J K L M N O P Q R S T U V W X Y Z