Song name
# A B C D E F G H I J K L M N O P Q R S T U V W X Y Z

Waifs - London Still tab

1--------------------------------------------0-----0-----------------------|
2-----------------------------0---------0--0-----0---(strum)---------------|
3---------------------------0---0-----0---2----4---------------------------|
4------------------0-2-0--4-------4-4--------------------------------------|
5-0-h2-3-p2-h3-------------------------------------------------------------|
6--------------------------------------------------------------------------|

(play fast)
1 -3-0-0-----------------------3-0-0--------------------------0------------|
2 -------3-0-0--1-0-0----------------3-0-0--1-0-0-------------0------------|
3 ---------------------2-0-0-----------------------2-0-0------0------------|
4 ------------------------------------------------------------2------------|
5 ------------------------------------------------------------2------------|
6 ------------------------------------------------------------0------------|

1 -----------------3-0-5-3-2-0---------------------------------------------|
2 --0-3--5-5-5-3-5-------------3-0-3-5-3-0---------------------------------|
3 -------------------------------------------2-0---------------------------|
4 -------------------------------------------------b2----------------------|
5 -------------------------------------------------------------------------|
6 -------------------------------------------------------------------------|

(play fast)
1 -3-0-0-----------------------3-0-0--------------------------0------------|
2 -------3-0-0--1-0-0----------------3-0-0--1-0-0-------------0------------|
3 ---------------------2-0-0-----------------------2-0-0------0------------|
4 ------------------------------------------------------------2------------|
5 ------------------------------------------------------------2------------|
6 ------------------------------------------------------------0------------|
Tap to rate this tab
# A B C D E F G H I J K L M N O P Q R S T U V W X Y Z