Song name
# A B C D E F G H I J K L M N O P Q R S T U V W X Y Z

Wailers - Sab-ho-zay tab

Artist: The Fabulous Wailers (The Wailers)
Album: The Fabulous Wailers At The Castle (1962)
Song: Sab-Ho-Zay

here's intro theme from the song:

e----------3---3-3-----3-3----|
B----------4---4-4-----4-4----|
G---3-4-5----5-----5--------5-| x2
D-5------------------5--------|
A-----------------------------|
E-----------------------------|

e----------3---3-3-----3-3----|
B----------4---4-4-----4-4----|
G---3-4------5-----5--------5-|
D-5-----3------------5--------|
A-----------------------------|
E-----------------------------|

e----------3---3-3-----3-3----|
B----------4---4-4-----4-4----|
G---3-4-5----5-----5--------5-|
D-5------------------5--------|
A-----------------------------|
E-----------------------------|

e----------3---3-3-------------|
B----------4---4-4-------------|
G---3-4------5-----5-----------|
D-5-----5------------5-5--4--3-|
A------------------------------|
E------------------------------|

e----------3---3-3-------------|
B----------4---4-4-----4-------|
G---3-4-5----5-----5-----5-3---|
D-5------------------5-------5-|
A------------------------------|
E------------------------------|

tabbed by allex
2008
Tap to rate this tab
 
# A B C D E F G H I J K L M N O P Q R S T U V W X Y Z