Waka Flocka Flame - Hard In Da Paint tab

e|-------------------------------------------------------------------------|
B|-------------------------------------------------------------------------|
G|--------3--------------4-------------------------------------------------|
D|1---3-4---1---1---3-4-----4-3--1-----------------------------------------|
A|-------------------------------------------------------------------------|
E|-------------------------------------------------------------------------|
^^^^^the first riff in the intro^^^^^^^
e|-------------------------------------------------------------------------|
B|-------------------------------------------------------------------------|
G|-------------------------------------------------------------------------|
D|--------3--------------4-------------------------------------------------|
A|1---3-4---1---1---3-4-----4-3--1-----------------------------------------|
E|-------------------------------------------------------------------------|
^^^^then this one is when it changes^^^^^^^

BalliN!
waka Flocka Flame FLoCKA !!!!!
Tap to rate this tab
 
# A B C D E F G H I J K L M N O P Q R S T U V W X Y Z