Song name
# A B C D E F G H I J K L M N O P Q R S T U V W X Y Z

Waka Flocka Flame - Hard In Da Paint tab

Hard In The Paint by Waka Flocka Flame

(This is the intro, but the same notes are used throughout the song)

E-------------------|
B-------------------|
G------3-----4------|
D-1-3-4-1-3-4-3-4-3-|
A-------------------|
E-------------------|
(Repeat x4)

E-------------------|
B------6-----7------|
G-3-5-6-3-5-6-5-6-5-|
D-------------------|
A-------------------|
E-------------------|
(Repeat x4)
Tap to rate this tab
 
# A B C D E F G H I J K L M N O P Q R S T U V W X Y Z