Song name
# A B C D E F G H I J K L M N O P Q R S T U V W X Y Z

Wake Up Your Seatmate - Charm Me tab

Charm me
by: Wake up your seatmate

this is their first single on their debut album. first time i heard them live on RT's Sunday Sessions.
Grabe astiiiggggg kayo guyz!!!! ang bagsik ng drummer.

hello sa wake up your seatmate...kay mia, celine, paty and atchoo...
keep up the goodwork.ang gagaling nyong lahat...i really like your songs..goodluck....


Chords:

	DM9	E  	Bm	A	D	F	G	E2	Bm2	D2	
e--------0------0-------2-------0-------2-------1-------3-------7--------7-------5----|
B--------2------0-------3-------2-------3-------1-------3-------9--------7-------7----|
G--------2------1-------4-------2-------2-------2-------4-------9--------7-------7----|
D--------0------2-------4-------2-------0-------3-------5-------9--------9-------7----|
A--------x------2-------2-------0-------x-------3-------5-------7--------9-------5----|
E--------x------0-------x-------x-------x-------1-------3-------7--------7-------5----|

Intro:
 
    DM9			DM9		     DM9
e----0------4-4-5-4---|--0----------------|---0----4-4-5-4-|-12-10-9---------12----12--|
B----2--------------5-|--2-----2-2-3-5-5--|---2------------|----------12--12----12-----|
G----2----------------|--2----------------|---2------------|---------------------------|
D----0----------------|--0----------------|---0------------|---------------------------|
A----x----------------|--x----------------|---x------------|---------------------------|
E----x----------------|--x----------------|---x------------|---------------------------|

Verse:

	DM9 <---paulit ulit ito	        E   
e--------0--------------------------|---0------|
B--------2--------------------------|---0------| 
G--------2--------------------------|---1------|  (2x)
D--------0--------------------------|---2------| 
A--------x--------------------------|---2------|  
E--------x--------------------------|---0------|
       hey boy...

Refrain:

Bm-A-Bm-D

Chorus:

A-E-D--(4x)


repeat (intro and verse) 
       (chorus2x)

adlib:

Bm-A-Bm-D-pause
Bm-A-Bm-D

A-E-D--(2x)
A-F-G-E-F

Bm2-A2-Bm2-D

repeat chorus 2x

outro

D-D-D--A


chorus lead:

e--10-9--|--------------11--10--9--12--|---------10-----10---10----12--|
B--------|---10/11--10-----------------|--10-9-9----9-9----9----9------|
G--------|-----------------------------|-------------------------------|
D--------|-----------------------------|-------------------------------|
A--------|-----------------------------|-------------------------------|
E--------|-----------------------------|-------------------------------|
         you treat me like...



e--10-9--|--------------11--10--9--15--|---------10-----10---10----12---12---12-|
B--------|---10/11--10-----------------|--10-9-9----9-9----9----9-----9------12-|
G--------|-----------------------------|----------------------------------------|
D--------|-----------------------------|----------------------------------------|
A--------|-----------------------------|----------------------------------------|
E--------|-----------------------------|----------------------------------------|

If you have comments, questions and suggestions please do email me edemayne@yahoo.com
or invite me on my friendster account at edemine@gmail.com or text me @ 0906-35-35-975.
please behave...hehehehh!!!
Tap to rate this tab
# A B C D E F G H I J K L M N O P Q R S T U V W X Y Z