Song name
# A B C D E F G H I J K L M N O P Q R S T U V W X Y Z

Wakefield - Heavens Coming tab

-------------------------------------------------------------------------------
			     SONG NAME - Band Name
-------------------------------------------------------------------------------
Tabbed by:Tom OB
Email:tom2theob@aim.com

Tuning:Standard

e|------3----------3-------3--------3-2-------------------------------------|
B|--------3----------3--------3----------3----------------------------------|
G|--------------------------------------------------------------------------|
D|-------------0h2------0---------------------------------------------------|
A|---2-------3--------2-----------------------------------------------------|
E|-3----------------------------2-------------------------------------------|

Tap to rate this tab
# A B C D E F G H I J K L M N O P Q R S T U V W X Y Z