Song name
# A B C D E F G H I J K L M N O P Q R S T U V W X Y Z

Wakefield - Unsweet Sixteen tab

Help us improve GuitareTab! Take a short survey!
hey this is my first tab but its a pretty easy song..
what i've figured out so if ya have comments send em to krazylilpsycho06@aol.com 

Listen to song for strumming

Intro/Verse:
|---------------------------------------------------------------------------|
|---------------------------------------------------------------------------|
|---5--5--5--5--5--5--5--5--------------------------------------------------|
|---5--5--5--5--5--5--5--5---5--5--5--5--5--5--5--5---7--7--7--7--7--7--7--7|
|---3--3--3--3--3--3--3--3---5--5--5--5--5--5--5--5---7--7--7--7--7--7--7--7|
|----------------------------3--3--3--3--3--3--3--3---5--5--5--5--5--5--5--5|
    Palm muted till chorus
Guitar2 does something between each chord haven't gotten that far yet

|---------------------------------------------------------------------------|
|---------------------------------------------------------------------------|
|---------------------------------------------------------------------------|
|---8--8--8--8--8--8--8--8--------------------------------------------------|
|---8--8--8--8--8--8--8--8--------------------------------------------------|
|---6--6--6--6--6--6--6--6--------------------------------------------------|

Chorus:
|---------------------------------------------------------------------------|
|---------------------------------------------------------------------------|
|--5--5--5--5--5--5--5--5---------------------------------------------------|
|--5--5--5--5--5--5--5--5---5--5--5--5--5--5--5--5---8--8--8--8--8--8--8--8-|
|--3--3--3--3--3--3--3--3---5--5--5--5--5--5--5--5---8--8--8--8--8--8--8--8-|
|---------------------------3--3--3--3--3--3--3--3---6--6--6--6--6--6--6--6-|

|---------------------------------------------------------------------------|
|---------------------------------------------------------------------------|
|---------------------------------------------------------------------------|
|--3--3--3--3--3--3--3--3---------------------------------------------------|
|--3--3--3--3--3--3--3--3---------------------------------------------------|
|--1--1--1--1--1--1--1--1---------------------------------------------------|

I dont have the interlude and the outro yet (theyre pretty much the same)
if ya got that email it to me but i'll be doin that sometime

Verse X3
Chorus X2
Verse X3
Chorus X2
Interlude
Chorus X3
Outro
Related for Unsweet Sixteen tab