Song name
# A B C D E F G H I J K L M N O P Q R S T U V W X Y Z

Wakefield - Cmon Baby tab

-------------------------------------------------------------------------------
			     C'mon Baby - Wakefield
-------------------------------------------------------------------------------
Tabbed by: Daniel Nalepa
Email: guitarplayer200480@yahoo.com

Tuning: Normal Tuning

e|---------------------------------------------------------------------------|
B|---------------------------------------------------------------------------|
G|----------------------------------7--7----7--------------------------------|
D|--8--8----8-------7--7----7-------7--7----7-------5--5----5----------------|
A|--8--8----8-------7--7----7-------5--5----5-------5--5----5----------------|
E|--7--7----7-------5--5----5-----------------------3--3----3----------------|

This reapeats throughout the song but there is more to it that I havent figured out yet 
this will have to do for awhile. But the strumming is all down strokes.
Tap to rate this tab
 
# A B C D E F G H I J K L M N O P Q R S T U V W X Y Z