Guitaretab - guitar tabs
Song name
# A B C D E F G H I J K L M N O P Q R S T U V W X Y Z

Wakefield - Hors Doeuvres Avant Le Coup Detat Picture Frame tab

"Hors D'Oeuvres Avant le Coup D'Etat (Picture Frame)" by Wakefield


Standard tuning

. = P.M.

Intro

-------|
-------|
-------|    keep playing this until like 13 seconds into the song
-------|
--3----|
--1----|
  .

Verse

-------------------------------------------------------------------------|
-------------------------------------------------------------------------|
-------------------------------------------------------------------------|
6-6-6-6---5-5---3-3------------------------------------------------------|
4-4-4-4---3-3---1-1---6-6-6-6---5-5---6-6---3---keep strumming the 3 & 1-|
----------------------4-4-4-4---3-3---4-4---1----------------------------|
. . . .   . .   . .   . . . .   . .   . .   .

Do you understand . . .

--------------------------------------------------------------------|
--------------------------------------------------------------------|
--------------------------------------------------------------------|
6-6-6-6---5-5---3-3-------------------------------------------------|
4-4-4-4---3-3---1-1---6-6-6-6---5-5---6-6---3-3-3-3-3-3---55---66---|
----------------------4-4-4-4---3-3---4-4---1-1-1-1-1-1---33---44---|
. . . .   . .   . .   . . . .   . .   . .   . . . . .

Chorus

----------------------------------|
----------------------------------|
----------------------------------|
-------8---5---6------------------|    Strumming
---6---6---3---4------------------|
---4------------------------------|


You got it, you got it . . .

-------|
-------|
-------|
-------|
--3----|
--1----|
  .

Verse
[ Tab from: http://www.guitaretab.com/w/wakefield/63484.html ]
-------------------------------------------------------------------------|
-------------------------------------------------------------------------|
-------------------------------------------------------------------------|
6-6-6-6---5-5---3-3------------------------------------------------------|
4-4-4-4---3-3---1-1---6-6-6-6---5-5---6-6---3---keep strumming the 3 & 1-|
----------------------4-4-4-4---3-3---4-4---1----------------------------|
. . . .   . .   . .   . . . .   . .   . .   .

I don't understand . . .

--------------------------------------------------------------------|
--------------------------------------------------------------------|
--------------------------------------------------------------------|
6-6-6-6---5-5---3-3-------------------------------------------------|
4-4-4-4---3-3---1-1---6-6-6-6---5-5---6-6---3-3-3-3-3-3---55---66---|
----------------------4-4-4-4---3-3---4-4---1-1-1-1-1-1---33---44---|
. . . .   . .   . .   . . . .   . .   . .   . . . . .

Chorus

----------------------------------|
----------------------------------|
----------------------------------|
-------8---5---6------------------|    Strumming
---6---6---3---4------------------|
---4------------------------------|


You got it, you got it . . .

-------|
-------|
-------|
-------|
--3----|
--1----|
  .

-------------------------------------------------------------------------|
-------------------------------------------------------------------------|
-------------------------------------------------------------------------|
6-6-6-6---5-5---3-3------------------------------------------------------|
4-4-4-4---3-3---1-1---6-6-6-6---5-5---6-6---3---keep strumming the 3 & 1-|
----------------------4-4-4-4---3-3---4-4---1----------------------------|


Chorus

----------------------------------|
----------------------------------|
----------------------------------|
-------8---5---6------------------|    Strumming
---6---6---3---4------------------|
---4------------------------------|


End riff

-------------------|
-------------------|
-------8-----------|
-----6-------------|
---6---------------|
-------------------|


If you have any comments or corrections e-mail me at Octoberskies0@yahoo.com

Hope you enjoy

Peace out!

Danielle
Related for Hors Doeuvres Avant Le Coup Detat Picture Frame tab
Advertisement will be closed in 10 seconds