Song name
# A B C D E F G H I J K L M N O P Q R S T U V W X Y Z

Wakeywakey - Almost Everything chords

Highlighted       Show chord diagrams
Wakey!Wakey! - Almost Everything
Tabbed by: mathdmusic

capo 5


intro
---------3-----------|   6x  then        Em7     C       G       F#/D  4x
-----3------3--------|
---0---0--0---0------|
---------------------|
---------------------|
---------------------|

Verse:

---------3---------------3-----------3--------|
-----3------3----------3---3-------3---3------|
---0---0--0---0-------0-0-0-0-----0-0-0-0-----|
-------------------0--------------------------|
-3-------------------------------2------------|
----------------------------------------------|

-----3----------3-----------3------------3-----------3----|
---3---3------3---3-------3---3--------3---3-------3---3--|
--0-0-0-0----0-0-0-3-----0-0-0-0------0-0-0-0-----0-0-0-0-|
-----------------------0------------2-----------0---------|
3-----------3---------------------------------------------|
----------------------------------------------------------|



Chorus:

Em7     C      G      F#/D

verse:

Said sit down with me before you go
That's the wrong thing I know
But I don't know when I will see you again
and it gets so lonely..


verse:

See you'd be foolish if you stayed here now
Maybe if you leave we could work it out
Cause I know the city only breaks you down
and it gets you lonely

                   Em7  C      G      F#/D
see it's gonna get lonely


verse:

so you miss the feeling when you step outside
yeah your mind comes all untied
and then you open up your eyes
and you don't feel lonely


chorus: Em7     C       G       F#/D  -------> till the end

see it feels bad now but it's gonna get better x3 someday
see it feels bad now but it's gonna get better x3 someday

yeah someday

see it feels bad now but it's gonna get better x3 someday
Tap to rate this tab
# A B C D E F G H I J K L M N O P Q R S T U V W X Y Z