Song name
# A B C D E F G H I J K L M N O P Q R S T U V W X Y Z

Waking Ashland - Same Problem chords

Highlighted       Show chord diagrams
Same Problem Drop D Capo 3
I have arranged this version to be half plucked (verse) and half strummed (chorus 
and bridge).  On verses, the following chords should be all plucked (sort of pluck 
and then tap the strings...I hope you know what Im talking about).  I have the 
different versions of chords written out:

Chords for first verse (pluck all not xed)   2nd, 3rd Verse (change Em & D)
        Am     C     Em      D                   Em     D
e|-------x-----0-----3-------2--------------|----3------2------------------|
B|-------1-----1-----0-------3--------------|----0------3------------------|
G|-------2-----0-----0-------2--------------|----0------2------------------|
D|-------2-----2-----2-------0--------------|----x------x------------------|
A|-------0-----x-----x-------x--------------|----x------x------------------|
D|-------x-----x-----x-------x--------------|----2------0------------------|


Chords for Chorus (strummed)
       Cadd9     G       Em       D
e|-------3-------3-------2--------2----------------------------------------|
B|-------3------(3)------2--------3----------------------------------------|
G|-------0-------0------(2)-------2----------------------------------------|
D|-------2-------0-------0--------0----------------------------------------|
A|-------3-------5-------0--------0----------------------------------------|
D|-------x-------5-------0--------0----------------------------------------|

Chords are arranged for Drop D tuning and to build the song.  If you dont like my 
arrangement, you can play normal chords with capo3, standard tuning.


Am C        Em     D       Am
Oh no the battle forms in-side,
       C          Em         D        Am
And I speak, but you don't see the signs,
           C       Em        D       Am
My heart aches, leaving me here to hide,
           C        Em       D
My world shakes, until you assure me,


Am  C   Em          D
Oh no there goes composure,
Am  C     Em     D
Over and out to sea,
Am   C  Em         D
oh no this won't control me,
Am       C               Em      D
But it seems to get the best of me,

Cadd9       G        Em        D
The same problem, coming to haunt me again,
Cadd9   G          Em       D
And I know it's taken the best of my head,
Cadd9       G      Em          D
The same problem tears me to pieces inside,
Cadd9    G         D    Am
And I'm left to wonder why...

C, Em, D

Am  C        Em          D
Oh no I'm crossing my fingers,
Am   C        Em             D
In hopes that you will not leave me,
Am    C          Em        D
Far away, the silence it burns me,
Am    C           Em     D
As I wait, the tension builds,

Cadd9       G        Em        D
The same problem, coming to haunt me again,
Cadd9   G          Em       D
And I know it's taken the best of my head,
Cadd9       G      Em          D
The same problem tears me to pieces inside,
Cadd9    G         D    Am
And I'm left to wonder why...

Cadd9   G             D
Oh why can't I move forward?
Cadd9    G             D
Oh why does my mind wander?
Cadd9        G          D    Am     D
Oh why does my heart desire you?

Cadd9       G        Em        D
The same problem, coming to haunt me again,
Cadd9   G          Em       D
And I know it's taken the best of my head,
Cadd9       G      Em          D
The same problem tears me to pieces inside,
Cadd9    G         D    
And I'm left to wonder...


Cadd9       G        Em        D
The same problem, coming to haunt me again,
Cadd9   G          Em       D
And I know it's taken the best of my head,
Cadd9       G      Em          D
The same problem tears me to pieces inside,
Cadd9    G         D    Am
And I'm left to wonder why...

Am  C    Em          D
Oh no, there goes composure...


Tap to rate this tab
# A B C D E F G H I J K L M N O P Q R S T U V W X Y Z