Song name
# A B C D E F G H I J K L M N O P Q R S T U V W X Y Z

Waking Ashland - Hands On Deck tab

Really played on the piano, but this is it on guitar.
The end of the song is just Part 2 again.
Let me know if you have any questions.
richlmn@yahoo.com


E---7---9---11---9---12---11---9---7-----7-----0--2--4--12--11--9------|
B-----7---7----7---7----7----7---7---7---5---0-------------------------|
G----------------------------------------------------------------------|
D----------------------------------------------------------------------|
A----------------------------------------------------------------------|
E----------------------------------------------------------------------|
(Part 1)

E----------------------------------------------------------------------|
B----------------------------------------------------------------------|
G---4----6---8---6---9---8---6---4----4--------------------------------|
D------4---4---4---4---4---4---4---4--------2--4--6--------------------|
A---2------------------------------------2-----------------------------|
E-------------------------------------0--------------------------------|
(Part 2)
Tap to rate this tab
# A B C D E F G H I J K L M N O P Q R S T U V W X Y Z