Song name
# A B C D E F G H I J K L M N O P Q R S T U V W X Y Z

Wale - 90210 tab

-0------0------0------2------2-------2------1------1------1------1----|
--2------2------2------4------4-------4------3------3------3------3---|
----------------------------------------------------------------------|
----2------2-------------4------4--------------3------3------3------3-|
----------------------------------------------------------------------|
----------------------------------------------------------------------|


--0-------0----------------------------------------------------------|
---3------2----------------------------------------------------------|
----2-----1----------------------------------------------------------|
-----3----2----------------------------------------------------------|
---------------------------------------------------------------------|
---------------------------------------------------------------------|
Tap to rate this tab
 
# A B C D E F G H I J K L M N O P Q R S T U V W X Y Z