Song name
# A B C D E F G H I J K L M N O P Q R S T U V W X Y Z

Wale - Bad tab

Bad
Wale ft. Tiara Thomas

Intro Solo:

Guitar 1
|---------------------------------------------------|
|---------------------------------------------------|
|---------------------------------------------------|
|---7----------------------------7---9/11----9\7----|
|------9-------9--9-9-9-9-9p7-9----9----------------|
|---------------------------------------------------|

Guitar 2:
|----------------2----------------------------------|
|--------------2----------------------------5-------|
|------------2-----------------------------5--------|
|----------4------------------------------7---------|
|--------4-------------------------------7----------|
|------2--------------------------------5-----------|

Guitar 1:
|-----------------------------------------------|
|-------------------------9--9---9-9-9h10h9-----|
|-----------------9-----13-13-13----------------|
|--------7--9/11-----9--------------------------|
|--7--9-----------------------------------------|
|-----------------------------------------------|

Guitar 2:
|-----------------------------------------------|
|---------------------9-------------------------|
|---------------------9-------------------------|
|---------------------9-------------------------|
|-----------------------------------------------|
|-----------------------------------------------|

Guitar 1:
|----------------------------------------------------|
|----------------------------------------------------|
|--9-------------------------------------------------|
|-----11--9-9h11p9h11p9h11p9-------------------------|
|------------------------------7-4-------------------|
|----------------------------------8-7\5-2-----------|

Guitar 2:
|---------------------------------------------2------|
|--------------------------------------------2-------|
|-------------------------------------------2--------|
|------------------------------------------4---------|
|-----------------------------------------4----------|
|----------------------------------------2-----------|

Intro:
                                Repeat Throughout Song
|----------------------------------------------------| 
|-10----10------7----------9----9----9---------------|
|-9-----9-------7----------9----9----9---------------|
|-11----11------7----------9----9----9---------------|
|-11----11-------------------------------------------|
|-9-----9-------7----------9----9----9---------------|



h  = hammer on
p  = pull off
/  = Slide up
\  = slide down

Tap to rate this tab
# A B C D E F G H I J K L M N O P Q R S T U V W X Y Z