Song name
# A B C D E F G H I J K L M N O P Q R S T U V W X Y Z

Walk Off The Earth - Somebody That I Used To Know tab

Song:Somebody That I Used To Know(Cover)
Artist:Walk Off The Earth

Tabbed:ConMan

Tuning:Standard

Note:Since The Song Has 5 people  playing one guitar I'm going to go by the video. I'm 
only Tabbing the 3 people in the middle. Starting with the guy on the right.

|Guy On The Right|
e|-----------|     |-------------------|
B|-----------|Verse|-------------------|
G|-----------| <-- |-------------------| That's about it replay through song
D|-----------|Chous|-------------------|
A|-----------| --> |-------------------|
E|--5-5-3-3--|     |--5-5-3-3-1-1-3-3--|

Girl On Left
e|-------------|     |--------------------------|
B|--18-----17--|Verse|--18--18--17--17--15--15--|
G|-------------| <-- |--------------------------|Over And Over And Over
D|--19-----17--|Chors|--19--19--17--17--15--15--|
A|--17-----15--| --> |--17--17--15--15--13--13--|
E|-------------|     |--------------------------|


Guy In Middle
e|--------3--3--5-6-8-6-------------------|
B|--1--1----------------8--6-6-5-5-3-3-1--|
G|----------------------------------------|
D|----------------------------------------|
A|----------------------------------------|
E|----------------------------------------|

e|-------3--3--5-6-8-6------------------3/5--|
B|--1--1---------------8--3-3--3/5-3-3-------|
G|-------------------------------------------|
D|-------------------------------------------|
A|-------------------------------------------|
E|-------------------------------------------|


So Far
Tap to rate this tab
 
# A B C D E F G H I J K L M N O P Q R S T U V W X Y Z