Song name
# A B C D E F G H I J K L M N O P Q R S T U V W X Y Z

Walk Off The Earth - Somebody That I Used To Know tab

This tab includes the three guitar parts.
I don't know if it's right.

For the time please watch the youtube video.


You can also play this for the woman's part, but then it's hard to play everything together.

             1     2     3     4       
Intro/Verse                            
           e--------------------------|
           B-15----------13-----------|
           G-14----------12-----------|
Woman      D--------------------------|
           A--------------------------|
           E--------------------------|

             1     2     3     4        1     2     3     4
Refrain                            
           e--------------------------|--------------------------|
           B-15----------13-----------|-11----------13-----------|
           G-14----------12-----------|-10----------12-----------|
Woman      D--------------------------|--------------------------|
           A--------------------------|--------------------------|
           E--------------------------|--------------------------|





Intro        1     2     3     4        1     2     3     4     
(0.04 - 0.12)
           e--------------------------|--------------------------| 
           B--------------------------|--------------------------| 
           G--------------------------|--------------------------| 
Right Guy  D--------------------------|--------------------------| 
           A-5-------5---3-------3----|-5-------5---3-------3----| 
           E--------------------------|--------------------------| 

             1     2     3     4        1     2     3     4     

           e-------------3-----3------|-5-6---8-5---3------------| 
           B-1-----1------------------|--------------------------|
Guy in     G--------------------------|--------------------------| 
the middle D--------------------------|--------------------------| 
           A--------------------------|--------------------------| 
           E--------------------------|--------------------------| 

             1     2     3     4        1     2     3     4     

           e--------------------------|--------------------------| 
           B--------------------------|--------------------------| 
           G-19----------17-----------|-19----------17-----------| 
Woman      D-19----------17-----------|-19----------17-----------| 
           A--------------------------|--------------------------| 
           E--------------------------|--------------------------| 

It's not finished yet ;)
Tap to rate this tab
# A B C D E F G H I J K L M N O P Q R S T U V W X Y Z